8:00 AM (Animal Crossing) Guitar Tab

Submitted: Feb 12, 2015 by SolidusArmor

4
Average: 4 (2 votes)
Download | Listen
Game: Animal Crossing
Composer(s): Kazumi Totaka, Shinobu Tanaka, Toru Minegishi
Style: 2 or more instruments, Alternate picking, Arrangement

AutoScroll: Slow | Medium | Fast










                                        
                            Game| Animal Crossing
                              Song| 8AM
                                Console| GameCube 
                                  Composer|Kazumi Totaka, Shinobu Tanaka, Toru Minegishi 
                                   Key| F
                                    

                                        Tuning Standard EADGBe 

                  Transcribed by SolidusArmor








               

                               
                                         Guitar 1     play's this thru the whole song

                                              

           Fmaj7                                Bb                               Fmaj7                           Bb
e|--------------------------------|--------------------------------|----0------0--------0------0--|-----------------------------|
B|-----1------1-------1-------1---|------3-----3--------3-----3----|-------1---------------1------|------3-----3------3------3--|
G|--------2--------------2--------|---------3--------------3-------|------------------------------|---------3-------------3-----|
D|-3--------------3---------------|---3--------------3-------------|--3---------------3-----------|---3-------------3-----------|
A|--------------------------------|--------------------------------|------------------------------|-----------------------------|
E|--------------------------------|--------------------------------|------------------------------|-----------------------------|
























                     
                          Guitar 2  play's the melody's    


e|-------------------------|---------------------------------|--------------------------------------|
B|-13----------13----------|---------------------------------|---13----------13-----15--13----------|
G|-----14--15-----------15-|----14-------12---14---------12--|-------14--15------------------15--14~|
D|------------------15-----|--------15-----------------------|-------------------15-----------------|
A|-------------------------|-----------------------15--------|--------------------------------------|
E|-------------------------|---------------------------------|--------------------------------------|







e|-12------10-------8---------6------5h6p5-5h6p5-5h6p5-5h6p5----|
B|--------------------------------------------------------------|
G|--------------------------------------------------------------|
D|--------------------------------------------------------------|
A|--------------------------------------------------------------|
E|--------------------------------------------------------------|





e|---------13--12--------------|
B|-13--15----------13----15~~--|
G|-----------------------------|
D|-----------------------------|
A|-----------------------------|
E|-----------------------------|



Login or Register to remove this ad.