Ads

Title Screen (Animal Crossing: Wild World) Guitar Tab

Submitted: May 06, 2021 by judgexii (Last updated: May 13, 2021)

5
Average: 5 (2 votes)
Download | Listen
Game: Animal Crossing: Wild World
Composer(s): Kazumi Totaka
Style: Arrangement, Fingerstyle, Natural harmonics

AutoScroll: Slow | Medium | Fast
"Title Screen" - Animal Crossing: Wild World
Composers : Kazumi Totaka
Arrangement : judgexii
Tuning : Standard EADGBe
BPM : 98 (4/4 Time)

   e  e  e  q+q.	     e  e  e  q+q.  	       e  e  e  q    e  q        e  e  e  q    q     e
e-------------------------|-------------------------|-------------------------|----------------0--------|
B--------2--3-------------|--2--------0-------------|--------2--3----5--3-----|--2--3--5--0----------3--|
G-----------2-------------|--2-----2--2-------------|-----------2-------------|--2--------2-------------|
D-----2-----3-------------|--4--4-----3-------------|-----2-----3-------------|--4--------3-------------|
A--0--------0-------------|--5----------------------|--0----------------------|--5----------------------|
E-------------------------|-----------1-------------|-------------------------|-----------1-------------|

   e  e  e  h          e     q.      e  q.       e     e  e  e  e  e  q    e      e  e  e  q   q    e
E-----0-/7--5----------4--|--2-------0-----------2--|--0----------------------|----------------0----2---|
B--2--------5-------------|--2----------3-----------|--------0--------0-------|------------0------------|
G--2--------7-------------|--2----------2-----------|-----------2--2-------2--|--(2)----2---------------|
D--2--------7-------------|--0----------0-----------|-----2-----0-------------|-------------------------|
A--0--------5-------------|-------------------------|--0----------------------|------0------------------|
E-------------------------|-------------------------|-----------2-------------|---2---------------------|

   h          q    e  e      e   e  e  q    e  q       q     h          q        h         q    q
E--0----------5----9--10--|-(10)--------------------|--10----9----------12----|--7---------5----/9------|
B--2------------------10--|-(10)--------------------|--11---------------------|--5----------------------|
G--1------------------7---|-(7)--------7------------|--9----------------------|-------------------------|
D--2------------------7---|-(7)---------------------|-------------------------|--4----------------------|
A--0----------------------|------9--10------10--9---|-------------------------|-------------------------|
E-------------------------|-------------------------|-------------------------|-------------------------|

							         Retard...                Full Tempo
   e  e  q    h              e  e  e  e  q.      e     q.        q.   q          h        q      q
E--4----------------------|--4--5--4----------------|--5----------------------|-----------7/9----7------|
B--5-----5----2-----------|-----------7--5-------5--|--5---------5----\3------|-(3)---------------------|
G--3----------3-----------|--------------6----------|--7---------6----\2------|-(2)---------------------|
D--4--4-------------------|--------------7----------|--7----------------------|-------------------------|
A-------------------------|--------------0----------|--0----------------------|-------------------------|
E-------------------------|-------------------------|-------------------------|-------------------------|

   h          e  e  e  e     e e  e  e  e   e  e  e    q.   e  h                 e  e  q   e  e  e   e
E-------------------------|-------------7/9-7--9--7-|----------5--------------|-(5)--------7--9--11--13-|
B--5----------------5--5--|----------5--------------|--5----5--5--------------|-(5)---------------------|
G--6----------6--7-----6--|-------7-----------------|--6-------7--------------|-(7)-7--7----------------|
D--5-------------------5--|----7--------------------|--5-------7--------------|-(7)---------------------|
A--4-------------------4--|-------------------------|--4-------5--------------|-(5)---------------------|
E-------------------------|-------------------------|-------------------------|-------------------------|
   
										 Retard...
   q.       e  q    e  e      e  e  e  q   e  e  e      e   e  e  q+q.           q    q
										 ^
E--9----------------6--7--|--(7)--------------------|-------------------------|--7---<12>---------------|
B--11-------7--7-------7--|--(7)-------7------------|--(7)--------7-----------|--7----------------------|
G--10------------------7--|--(7)----7------7-----7--|--(7)-----7--------------|--7----------------------|
D--8-------------------7--|--(7)-7------------7-----|--(7)--7-----------------|--7----------------------|
A-------------------------|-------------------------|-------------------------|-------------------------|
E-------------------------|-------------------------|---0--------(0)----------|-------------------------|

Note Legend
-----------
w - whole
h - half
q - quarter
e - eighth
. - dotted

Tab Legend
-----------
() - continue holding note
h - hammer on
p - pull off
/ - slide up
\ - slide down
<> - natural harmonic
^ - brush up
Login or Register to remove this ad.