Login or Register to remove this ad.

Stale Cupcakes (Animal Crossing: Wild World) Guitar Tab

Submitted: Nov 04, 2009 by Kabukibear

5
Average: 5 (3 votes)
Download | Listen
Game: Animal Crossing: Wild World
Composer(s): Kazumi Totaka
Style: 2 or more instruments, Fingerstyle, Transcription

AutoScroll: Slow | Medium | Fast
Stale Cupcakes                                  
Animal Crossing: Wild World
Composed by: Kazumi Totaka 
Transcribed by: Justin Lincoln

bpm=87

Lead

     W                   W                   W                 
E||-------------------|-------------------|-------------------|
B||-------------------|-------------------|-------------------|
G||-------------------|-------------------|-------------------|
D||-------------------|-------------------|-------------------|
A||-------------------|-------------------|-------------------|
E||-------------------|-------------------|-------------------|


  W                   H.           Q       Q    E  E  Q    E  E   
-------------------|--------------------|------------------------|
-------------------|--------------------|-------------0----------|
-------------------|--2-----------------|-------1--2-------2--1--|
-------------------|--------------------|------------------------|
-------------------|--------------------|------------------------|
-------------------|--------------------|------------------------|


  H.           Q       Q    Q    Q    Q       Q.     E  Q.     E   
--------------------|----------------------|----------------------|
--------------------|----------------------|----------------------|
--------------------|------------1----2----|--2-------------------|
--4-----------------|-------4--------------|---------2------------|
--------------------|----------------------|------------4------4--|
--------------------|----------------------|----------------------|


  E  E  H.              W                   H.           Q     
---------------------|-------------------|--------------------|
---------------------|-------------------|--------------------|
---------------------|-------------------|--2-----------------|
--0--2--4------------|-------------------|--------------------|
---------------------|-------------------|--------------------|
---------------------|-------------------|--------------------|


  Q    E  E  E  E  E  E     H.           Q       Q    Q    Q    Q     
-------------------------|--------------------|----------------------|
-------------0--0--------|--------------------|----------------------|
-------1--2--------2--1--|--------------------|------------1----2----|
-------------------------|--4-----------------|-------4--------------|
-------------------------|--------------------|----------------------|
-------------------------|--------------------|----------------------|


  Q.     E  Q.     E     E  E  Q    Q    Q       W                 
----------------------|-----------------------|-------------------|
----------------------|-----------------------|-------------------|
--2-------------------|-----------------------|-------------------|
---------2------------|--0--2--4--------------|-------------------|
------------4------4--|-------------0----2----|--0----------------|
----------------------|-----------------------|-------------------|


  W                   E  E  H        Q       E  E  E  E  Q    E  E   
-------------------|----------------------|-------------------------|
-------------------|----------------------|--------------0----------|
-------------------|-----2--L-------------|--1--1--2--2-------1--2--|
-------------------|--4-------------------|-------------------------|
-------------------|----------------------|-------------------------|
-------------------|----------------------|-------------------------|


  H        H           E  E  E  E  Q    E  E     H        Q    E  E   
--------------------|-------------------------|----------------------|
--------------------|--------------0----3--2--|--L----------------2--|
--L-----------------|--1--1--2--2-------------|----------------------|
--------------------|-------------------------|----------------------|
--------------------|-------------------------|----------------------|
--------------------|-------------------------|----------------------|


  S S E  Q    Q    E  E     Q    H        Q       W                 
-------------------------|---------------------|-------------------|
--2-0--------------------|-------0-------------|-------------------|
------2--L---------------|----------------1----|--2----------------|
----------------------4--|--2------------------|-------------------|
-------------------------|---------------------|-------------------|
-------------------------|---------------------|-------------------|


  W                   H.           Q       Q    E  E  Q    E  E   
-------------------|--------------------|------------------------|
-------------------|--------------------|-------------0----------|
-------------------|--2-----------------|-------1--2-------2--1--|
-------------------|--------------------|------------------------|
-------------------|--------------------|------------------------|
-------------------|--------------------|------------------------|


  H.           Q       Q    Q    Q    Q       Q.     E  Q.     E   
--------------------|----------------------|----------------------|
--------------------|----------------------|----------------------|
--------------------|------------1----2----|--2-------------------|
--4-----------------|-------4--------------|---------2------------|
--------------------|----------------------|------------4------4--|
--------------------|----------------------|----------------------|


  E  E  H.              H        H           W                 
---------------------|--------------------|-------------------|
---------------------|--------------------|-------------------|
---------------------|--------------------|-------------------|
--0--2--4------------|--------------------|-------------------|
---------------------|--0--------2--------|--0----------------|
---------------------|--------------------|-------------------|


  W                   W                   W                 
-------------------|-------------------|-------------------|
-------------------|-------------------|-------------------|
-------------------|-------------------|-------------------|
-------------------|-------------------|-------------------|
-------------------|-------------------|-------------------|
-------------------|-------------------|-------------------|


  Q    Q    Q    Q       W                   Q    Q    Q    Q     
----------------------|-------------------|----------------------|
-------2---------2----|--0----------------|-------2---------2----|
------------2---------|-------------------|------------2---------|
----------------------|-------------------|----------------------|
----------------------|-------------------|----------------------|
----------------------|-------------------|----------------------|


                                                        |----3----|     
  Q    H        E  E     Q.     E  H           H        Q    Q    Q     
-------0--------2--4--|--5------------------|--------------------------|
--0-------------------|---------------------|-----------3----2----0----|
----------------------|---------2--2--------|--------------------------|
----------------------|---------------------|--------------------------|
----------------------|---------------------|--------------------------|
----------------------|---------------------|--------------------------|


  W                   H        H           W                  
-------------------|--------------------|-------------------||
-------------------|--------------------|-------------------||
--2----------------|--L-----------------|-------------------||
-------------------|--------------------|-------------------||
-------------------|--------------------|-------------------||
-------------------|--------------------|-------------------||

=================================================================

Guitar

     E  E  E  E  E  E  E  E     E  E  E  E  E  E  E  E   
E||--------------------0-----|--------0-----------0-----|
B||--------2-----0-----------|--2-----------0-----------|
G||-----2-----2-----2-----2--|-----2-----2-----2-----2--|
D||--------------------------|--------------------------|
A||--0-----------------------|--------------------------|
E||--------------------------|--------------------------|


  E  E  E  E  E  E  E  E     E  E  E  E  E  E  E  E   
--------------------0-----|--------0-----------0-----|
--------2-----0-----------|--2-----------0-----------|
-----2-----2-----2-----2--|-----2-----2-----2-----2--|
--2-----------------------|--------------------------|
--------------------------|--------------------------|
--------------------------|--------------------------|


  E  E  E  E  E  E  E  E     E  E  E  E  E  E  E  E   
--------------------0-----|--------------------0-----|
--------2-----0-----------|--------2-----0-----------|
--------------------------|--------------------------|
-----2-----2-----2-----2--|-----2-----2-----2-----2--|
--0-----------------------|--0-----------------------|
--------------------------|--------------------------|


  E  E  E  E  E  E  E  E     E  E  E  E  E  E  E  E   
--------------------0-----|--------------0-----2-----|
--------------0-----------|--------3-----------------|
--------2-----------------|-----2-----2-----2-----2--|
-----2-----2-----2-----2--|--0-----------------------|
--------------------------|--------------------------|
--2-----------------------|--------------------------|


  E  E  E  E  E  E  E  E     E  E  E  E  E  E  E  E   
--------------0-----------|--------------2-----------|
--------0-----------0-----|--------3-----------3-----|
-----2-----2-----2-----2--|-----2-----2-----2-----2--|
--------------------------|--------------------------|
--4-----------------------|--2-----------------------|
--------------------------|--------------------------|


  E  E  E  E  E  E  E  E     E  E  E  E  E  E  E  E   
--------------2-----------|--------------------0-----|
--------3-----------3-----|--------2-----0-----------|
-----2-----2-----2-----2--|--------------------------|
--------------------------|-----2-----2-----2-----2--|
--------------------------|--0-----------------------|
--0-----------------------|--------------------------|


  E  E  E  E  E  E  E  E     E  E  E  E  E  E  E  E   
--------------------0-----|--------------------0-----|
--------2-----0-----------|--------------0-----------|
--------------------------|--------2-----------------|
-----2-----2-----2-----2--|-----2-----2-----2-----2--|
--0-----------------------|--------------------------|
--------------------------|--2-----------------------|


  E  E  E  E  E  E  E  E     E  E  E  E  E  E  E  E   
--------------0-----2-----|--------------0-----------|
--------3-----------------|--------0-----------0-----|
-----2-----2-----2-----2--|-----2-----2-----2-----2--|
--0-----------------------|--------------------------|
--------------------------|--4-----------------------|
--------------------------|--------------------------|


  E  E  E  E  E  E  E  E     E  E  E  E  E  E  E  E   
--------------------------|--------------------0-----|
--------3-----------3-----|--------2-----0-----------|
-----2-----2-----2-----2--|--------------------------|
--------------------------|-----2-----2-----2-----2--|
--2-----------------------|--0-----------------------|
--------------0-----------|--------------------------|


  E  E  E  E  E  E  E  E     E  E  E  E  E  E  E  E   
--------------------0-----|--------------------------|
--------2-----0-----------|--7-----------7-----------|
--------------------------|--------7-----------7-----|
-----2-----2-----2-----2--|-----7-----7-----7-----7--|
--0-----------------------|--5-----------------------|
--------------------------|--------------------------|


  E  E  E  E  E  E  E  E     E  E  E  E  E  E  E  E   
--------------------------|--2-----------2-----------|
--7-----------6-----------|--------2-----------2-----|
--------4-----------4-----|-----2-----2-----2-----2--|
-----6-----6-----6-----6--|--------------------------|
--4-----------------------|--------------------------|
--------------------------|--2-----------------------|


  E  E  E  E  E  E  E  E     E  E  E  E  E  E  E  E   
--------------------------|--------------------2-----|
--6-----------6-----------|--7--------------2-----2--|
--------4-----------4-----|--------6-----0-----------|
-----6-----6-----6-----6--|-----7-----7--------------|
--------------------------|--0-----------------------|
--4-----------------------|--------------------------|


  E  E  E  E  E  E  E  E     E  E  E  E  E  E  E  E   
--2-----------2-----------|--0-----------0-----------|
--------2-----------2-----|--------0-----------0-----|
-----2-----2-----2-----2--|-----1-----1-----1-----1--|
--0-----------------------|--------------------------|
--------------------------|--4-----------------------|
--------------------------|--------------------------|


  E  E  E  E  E  E  E  E     E  E  E  E  E  E  E  E   
--------------------------|--------------------------|
--3-----------3-----------|--3-----------3-----------|
--------2-----------2-----|--------2-----------2-----|
-----4-----4-----4-----4--|-----4-----4-----4-----4--|
--2-----------------------|--------------------------|
--------------------------|--0-----------------------|


  E  E  E  E  E  E  E  E     E  E  E  E  E  E  E  E   
--------------------0-----|--------------------0-----|
--------2-----0-----------|--------2-----0-----------|
--------------------------|--------------------------|
-----2-----2-----2-----2--|-----2-----2-----2-----2--|
--0-----------------------|--0-----------------------|
--------------------------|--------------------------|


  E  E  E  E  E  E  E  E     E  E  E  E  E  E  E  E   
--------------------0-----|--------------0-----2-----|
--------------0-----------|--------3-----------------|
--------2-----------------|-----2-----2-----2-----2--|
-----2-----2-----2-----2--|--0-----------------------|
--------------------------|--------------------------|
--2-----------------------|--------------------------|


                                                        ^                  
  E  E  E  E  E  E  E  E     E  E  E  E  E  E  E  E     H        H         
--------------0-----------|--------------2-----------|--------------------|
--------0-----------0-----|--------3-----------3-----|--3-----------------|
-----2-----2-----2-----2--|-----2-----2-----2-----2--|--2-----------------|
--------------------------|--------------------------|--4-----------------|
--4-----------------------|--2-----------------------|--------------------|
--------------------------|--------------------------|--0-----------------|


  E  E  E  E  E  E  E  E     E  E  E  E  E  E  E  E   
--5-----------------------|--------4-----------------|
--------2-----------2-----|--------------------2-----|
-----2-----2-----2-----2--|-----2-----2-----2-----2--|
--4-----------4-----------|--3-----------3-----------|
--------------------------|--------------------------|
--------------------------|--------------------------|


  E  E  E  E  E  E  E  E     E  E  E  E  E  E  E  E   
--2-----------------------|--------------------------|
--------2-----------2-----|--2-----------------------|
-----2-----2-----2-----2--|--------------------------|
--2-----------2-----------|-----1--4--1-----1--4--1--|
--------------------------|--2-----------2-----------|
--------------------------|--------------------------|


  E  E  E  E  E  E  E  E     E  E  E  E  E  E  E  E   
--------2-----------2-----|--------0-----------0-----|
--------2-----------2-----|--------2-----------2-----|
-----2-----2-----2-----2--|-----1-----1-----1-----1--|
--0-----------0-----------|--------------------------|
--------------------------|--4-----------4-----------|
--------------------------|--------------------------|


  E  E  E  E  E  E  E  E     E  E  E  E  E  E  E  E   
--------2-----------2-----|--------0-----------0-----|
--------2-----------2-----|--------2-----------2-----|
-----2-----2-----2-----2--|-----1-----1-----1-----1--|
--0-----------0-----------|--------------------------|
--------------------------|--4-----------4-----------|
--------------------------|--------------------------|

                                                  Rit.
  E  E  E  E  E  E  E  E     H        H           E  E  E  E  E  E  E  E   
--------------------------|--------------------|--------------------0-----|
--------3-----------3-----|--3-----------------|--------2-----0-----------|
--------2-----------2-----|--2-----------------|--------------------------|
-----4-----4-----4-----4--|--4-----------------|-----2-----2-----2-----2--|
--2-----------2-----------|--------------------|--0-----------------------|
--------------------------|--0-----------------|--------------------------|


                             ^                  
  E  E  E  E  E  E  E  E     W                  
--------------------0-----|-------------------||
--2-----------0-----------|--2----------------||
--------2-----------------|--2----------------||
-----2-----2-----2-----2--|--2----------------||
--------------------------|--0----------------||
--------------------------|-------------------||




Duration Legend
---------------
W - whole
H - half
Q - quarter
E - 8th
S - 16th
T - 32nd
X - 64th
. - note dotted
|-n-|  - n-tuplets


Tablature Legend
----------------
L - tied note
^ - brush up
Rit. - gradually slow down
Login or Register to remove this ad.

3 comments on Stale Cupcakes

Wonderful tab! I look forward

5

Wonderful tab! I look forward to playing this!

Well

I thoroughly enjoy the rythym, couldnt say as much about the lead.

Fun Song

5

Great song just need another person to duet it with