2AM (Animal Crossing: Wild World) Guitar Tab

Submitted: Jun 22, 2018 by K0HIJIN

5
Average: 5 (2 votes)
Download | Listen
Game: Animal Crossing: Wild World
Composer(s): Kazumi Totaka
Style: 2 or more instruments, Arrangement, Fingerstyle

AutoScroll: Slow | Medium | Fast
Game:           Animal Crossing: Wild World
Name of song:   2 AM
Composer:       Kazumi Totaka
Tabber:         K0HIJIN
Date:           May 25th, 2018

[Standard Tuning]                                               
    

Rhythm Guitar

     Q    H        Q    H           Q    H        Q    H           Q    H        Q    H         
E||------------------------------|------------------------------|------------------------------|
B||-------5-------------3--------|-------5-------------3--------|------------------------------|
G||-------6-------------4--------|-------6-------------4--------|------------------------------|
D||-------6-------------4--------|-------6-------------4--------|-------6-------------4--------|
A||------------------------------|------------------------------|------------------------------|
E||--5-------------3-------------|--5-------------3-------------|--5-------------3-------------|


  Q    H        Q    H           Q    H        Q    H           Q    H        H.            
------------------------------|------------------------------|-----------------------------|
------------------------------|-------2-------------4--------|-------3--------3------------|
------------------------------|-------2-------------4--------|-------2--------1------------|
-------6-------------4--------|------------------------------|--2-------------2------------|
------------------------------|----------------2-------------|-----------------------------|
--5-------------3-------------|--2---------------------------|-----------------------------|


  H.           Q    H           H.           Q    H           Q    H        Q    H         
-----------------------------|-----------------------------|------------------------------|
--------------------6--------|--------------------5--------|-------2-------------3--------|
--6------------4-------------|--4------------3-------------|-------2-------------4--------|
--4--------------------------|-----------------------------|----------------2-------------|
--5------------4-------------|--4--------------------------|--2---------------------------|
-----------------------------|-----------------------------|------------------------------|


  H.           H.              Q    H        Q    H           Q    H        Q    H         
----------------------------|------------------------------|------------------------------|
--4------------5------------|-------5-------------4--------|-------4-------------2--------|
--5------------6------------|-------6-------------4--------|-------4-------------1--------|
--4-------------------------|--4---------------------------|--2---------------------------|
----------------------------|----------------2-------------|----------------2-------------|
----------------------------|------------------------------|------------------------------|


  Q    H        Q    H           Q    H        Q    H           Q    H        H.            
------------------------------|------------------------------|-------7---------------------|
------------------------------|-------2-------------3--------|-------8---------------------|
-------4-------------3--------|-------2-------------2--------|-------9---------------------|
-------2--------4-------------|----------------2-------------|--7--------------------------|
--4---------------------------|--2---------------------------|-----------------------------|
------------------------------|------------------------------|-----------------------------|


  H.           H.              H.           H.              H.           H.             
----------------------------|----------------------------|--2-------------------------||
--7------------7------------|--5------------5------------|--3------------3------------||
--6------------6------------|--4------------4------------|--2------------2------------||
--7-------------------------|--6-------------------------|---------------2------------||
--5-------------------------|--4-------------------------|--2-------------------------||
----------------------------|----------------------------|----------------------------||


Lead Guitar

     W.                  W.                  E  E  H        E  E  H         
E||-------------------|-------------------|--------------------------------|
B||-------------------|-------------------|--2--5-----------3--------------|
G||-------------------|-------------------|--------------------4-----------|
D||-------------------|-------------------|--------------------------------|
A||-------------------|-------------------|--------------------------------|
E||-------------------|-------------------|--------------------------------|


  Q    Q    Q    H.              Q    Q    Q    H        Q       W.                
------------------------------|-----------------4--------5----|-------------------|
--2---------2-----------------|------------2------------------|--5----------------|
-------2---------4------------|--2----4-----------------------|-------------------|
------------------------------|-------------------------------|-------------------|
------------------------------|-------------------------------|-------------------|
------------------------------|-------------------------------|-------------------|


  Q    Q    Q    H.              Q    Q    Q    H.              Q    Q    Q    H        Q     
--2----4----5----4------------|-------2----4----2------------|-------------------------------|
------------------------------|--5---------------------------|------------2----5-------------|
------------------------------|------------------------------|-------2------------------1----|
------------------------------|------------------------------|--4----------------------------|
------------------------------|------------------------------|-------------------------------|
------------------------------|------------------------------|-------------------------------|


  W.                  Q    Q    Q    Q    Q    Q       W.                
-------------------|--5----5----5----5----4----2----|--4----------------|
-------------------|--------------------------------|-------------------|
--2----------------|--------------------------------|-------------------|
-------------------|--------------------------------|-------------------|
-------------------|--------------------------------|-------------------|
-------------------|--------------------------------|-------------------|


  Q    Q    Q    Q    Q    Q       W.                  W.                
--4----4----4----4----2---------|--2----------------|-------------------|
---------------------------5----|-------------------|-------------------|
--------------------------------|-------------------|-------------------|
--------------------------------|-------------------|-------------------|
--------------------------------|-------------------|-------------------|
--------------------------------|-------------------|-------------------|


   Q     Q     Q     Q    Q     Q       Q    Q    Q    Q     Q    Q     
---9-----9-----9-----9----7----------|--7----7----7----7---------------|
--10----10----10----10----9----10----|--9----9----9----9----10----9----|
-------------------------------11----|----------------------11----9----|
-------------------------------------|---------------------------------|
-------------------------------------|---------------------------------|
-------------------------------------|---------------------------------|


   Q    W                Q      
------------------------------||
--10--------------------------||
--11--------------------------||
------------------------------||
------------------------------||
------------------------------||
                                        


Duration Legend
---------------
W - whole
H - half
Q - quarter
E - 8th
S - 16th
T - 32nd
X - 64th
. - note dotted
|-n-|  - n-tuplets


Tablature Legend
----------------
L - tied note
x - dead note
g - grace note
(n) - ghost note
> - accentuded note
NH - natural harmonic
AH - artificial harmonic
TH - tapped harmonic
SH - semi harmonic
PH - pitch harmonic
h - hammer on
p - pull off
b - bend
br - bendRelease
pb - preBend
pbr - preBendRelease
brb - bendReleaseBend
\n/ - tremolo bar dip
\n - tremolo bar dive
-/n - tremolo bar Release up
/n\ - tremolo bar inverted dip
/n - tremolo bar return
-\n - tremolo bar Release down
S - shift slide
s - legato slide
/ -  slide into from below or out of upwards
\ -  slide into from above or out of downwards
~ - vibrato
W - wide vibrato
tr - trill
TP - tremolo picking
T - tapping
S - slap
P - pop
< - fade in
^ - brush up
v - brush down
Login or Register to remove this ad.