Ads

Able Sisters - Sable and Mabel (Animal Crossing: New Leaf) Bass Tab

Submitted: Jun 30, 2020 by RonSkons (Last updated: Jul 28, 2020)

0
Download | Listen
Game: Animal Crossing: New Leaf
Composer(s): Kazumi Totaka
Style: Transcription

AutoScroll: Slow | Medium | Fast

A bass tab of the Able Sisters theme from ACNL/ACCF.
Feel free to comment any suggestions or improvements.

Tempo = 155

G |----------------|----------------|----------------|
D |--2-------------|--2-------------|--0-------------|
A |-----------2----|-----------0----|-----------0----|
E |----------------|----------------|----------------|


----------------------------||---------------|----------------|----------------|
--0-----------------0--1----||o2-------------|--2-------------|--0-------------|
----------------------------||o---------2----|-----------0----|-----------0----|
----------------------------||---------------|----------------|----------------|


----------------------------|----------------|----------------|----------------|
--0-----------------0--1----|--2-------------|--2-------------|--0-------------|
----------------------------|-----------2----|-----------0----|-----------0----|
----------------------------|----------------|----------------|----------------|


----------------------------|----------------|----------------|----------------|
--0-----------------0-------|--------4-------|--------2-------|-----------2----|
-----------------------4----|--2-------------|--2-------------|--0-------------|
----------------------------|----------------|----------------|----------------|


----------------|----------------|----------------|----------------|
-----------4----|--------4-------|--2-------------|--2-------------|
--3-------------|--2-------------|--------2-------|-----------2----|
----------------|----------------|----------------|----------------|


---------------|||
--------------o|||
--0--------0--o|||
---------------|||

Login or Register to remove this ad.