5:00 PM (Animal Crossing: New Leaf) Guitar Tab

Submitted: Sep 17, 2017 by Bradsta

5
Average: 5 (2 votes)
Download | Listen
Game: Animal Crossing: New Leaf
Composer(s): Kazumi Totaka
Style: Arrangement, Fingerstyle, Natural harmonics

AutoScroll: Slow | Medium | Fast
Animal Crossing: New Leaf - 5:00 PM
Composer: Kazumi Totaka
Tabber: Bradsta
Credits to: Alleeelex (for the baseline)
Date: 9/16/2017

E|-----------------|-----------------|-----------------|--------|
B|-5--5----5--5--5-|----5--5----1--1-|----1--1----3----|-3--3---|
G|-5--5----5--5--5-|----5--5----2--2-|----2--2----4----|-4--4---|
D|-----------------|-----------------|-----------------|--------|
A|-----------------|-----------------|-----------------|--------|
E|-----------------|-----------------|-----------------|--------|

e|----0----0-----0-|-------1---0-----|----0----0-----0-|-----3-----------|
B|------------3----|----3--------1---|------------3----|---3-------------|
G|-----------------|-----------------|-----------------|------------0--2-|
D|-----------------|-----------------|-----------------|-----------------|
A|---------3-----3-|---------3-----3-|---------3-----3-|---------3-----3-|
E|-1-----1---------|-1-----1---------|-1-----1---------|-1-----1---------|

e|-----------------|-----------------|----3------------|-----------------|
B|-0---------0-1-3-|------------3--1-|-----------------|---------------0-|
G|-----------------|----0------------|-------0---------|-----------0-2---|
D|-----------------|-----------------|-1-----1---------|-1-----1-3-------|
A|---------2-----2-|---------2-----2-|---------1-----1-|---------1-----1-|
E|-0-----0---------|-0-----0---------|-----------------|-----------------|

e|---------------3-|-----------------|---------------3-|------------3--8-|
B|----1------1-0---|-----------------|-----------------|-----------------|
G|-----------------|-----------------|-----------5-4---|-------5-4-------|
D|-0-----0---------|-0----0----------|-----------------|-----------------|
A|---------0-----0-|---------0-----0-|-4-----4---------|-4-----4---------|
E|-----------------|-----------------|---------4-----4-|---------4-----4-|

e|-7--8--3----0----|-----------------|---7-8-3----0----|-----------------|
B|-----------------|-----------------|-----------------|-----------------|
G|---------------5-|-----------------|---------------5-|-----------------|
D|-----------------|-----------------|-----------------|-----------------|
A|-3-----3---------|-3-----3---------|-3-----3---------|-3-----3---------|
E|---------3-----3-|---------3-----3-|---------3-----3-|---------3-----3-|

e|----0----0-----0-|-------1---0-----|----0----0-----0-|-----3-----------|
B|------------3----|----3--------1---|------------3----|---3-------------|
G|-----------------|-----------------|-----------------|------------0--2-|
D|-----------------|-----------------|-----------------|-----------------|
A|---------3-----3-|---------3-----3-|---------3-----3-|---------3-----3-|
E|-1-----1---------|-1-----1---------|-2-----2---------|-2-----2---------|

e|-----------------|----8----7--8--10-|-12-12-----------|----------------7-|
B|-0---------0-1-3-|------------------|----12------8--8-|----7----6-8-10---|
G|-----------------|------------------|------------9--9-|----7-------------|
D|-----------------|------------------|-----------------|-0-----0----------|
A|---------3-----3-|---------3--------|-0-----0---------|---------0------0-|
E|-3-----3---------|-4-----4-------8--|---------0-----0-|------------------|

e|----8------8-7---|-15--------------|-------15--------|------------3-8--|
B|-----------------|-----------------|----13-----------|---3-1-----------|
G|-----------------|-----------------|-----------------|-----------------|
D|-----------------|------------(12)-|-----------------|-----------------|
A|-----------------|-----------------|-----------------|-----------------|
E|-----------------|-----------------|-----------------|-----------------|

e|-7---------------|-----------------|-----------------|------------------||
B|-----------------|-----------------|-----------------|------------------||
G|-----------------|-----------------|-----------------|------------------||
D|-----------------|-----------------|-----------------|-----------------o||
A|-----------------|-3-----3---------|---------3-----3-|-----------------o||
E|-8-----8-3-----3-|---------3-----3-|-2-----2---------|-1-----1---3---2--||
Login or Register to remove this ad.

1 comment on 5:00 PM

Awesome work, dude! Nice

5

Awesome work, dude! Nice recording as well!