11:00 PM (Animal Crossing: New Leaf) Guitar Tab

Submitted: Nov 15, 2013 by nwowhore

5
Average: 5 (7 votes)
Download | Listen
Game: Animal Crossing: New Leaf
Composer(s): Kazumi Totaka
Style: Arrangement, Fingerstyle

AutoScroll: Slow | Medium | Fast
Name of song: 11 P.M.
Name of game: Animal Crossing:New Leaf
Composser(s): Manaka Kataoka / Atsuko Asahi
Tabber: NWOwhore
Date: 13/11/13




      E  E  Q    H           E  E  Q    Q    Q       E  E  Q    H         
E||---5--4-------5--------|--5--4-------5----L----|--5--4-------5--------|
B||---------3-------------|-----------------------|----------------------|
G||*----------------------|------------------4----|-----L--4----L--------|
D||*--------0----L--------|--------2----L---------|----------------------|
A||-----------------------|-----------------------|--------4----L--------|
E||-----------------------|-----------------------|----------------------|


  E  E  Q    Q    Q       E  E  Q    H           E  E  Q    Q    Q     
--5--4-------5----L----|--5--4-------5--------|--5--4-------5----L----|
-----------------------|--------3-------------|-----------------------|
--------4---------2----|----------------------|------------------4----|
-----------------------|--------0----L--------|--------2----L---------|
--------5---------L----|----------------------|-----------------------|
-----------------------|----------------------|-----------------------|


  Q    H        H           H        Q       E  E  Q    H         
--9----------------------|----------------|--5--4-------5--------|
-------------------------|----------------|----------------------|
--L----3--------L--------|--4--------6----|-----L--6----L--------|
-------4--------L--------|--4--------L----|----------------------|
-------------------------|----------------|--------5----L--------|
-------------------------|----------------|----------------------|


  E  E  Q    Q    Q       E  E  Q    H           E  E  Q    Q    Q     
--5--4-------5----L----|--5--4-------5--------|--5--4-------5----L----|
-----------------------|----------------------|-----------------------|
------------------4----|-----L--4----L--------|-----L-------L----2----|
--------2----L---------|----------------------|-----------------------|
-----------------------|--------4----L--------|--------5----L---------|
-----------------------|----------------------|-----------------------|


  E  E  Q    H           E  E  H.              E  E      H.            
--5--4-------5--------|--4--5--7------------|--4--5--|--14------------|
----------------------|---------------------|--------|----------------|
--------2----L--------|---------------------|--------|----------------|
--------0----L--------|---------------------|--------|----------------|
----------------------|--------7------------|--------|--10------------|
----------------------|---------------------|--------|----------------|


   H.           H            H.               H.           H         
--12------------L--------|--14------------|--12------------L--------|
-------------------------|----------------|-------------------------|
-------------------------|----------------|-------------------------|
-------------------------|----------------|-------------------------|
--12------------L--------|--10------------|--12------------L--------|
-------------------------|----------------|-------------------------|


  H.              H.           H           H.            
---------------|------------------------|---------------|
--7------------|--5------------L--------|---------------|
---------------|------------------------|---------------|
--5------------|--7------------L--------|--5------------|
---------------|------------------------|--9------------|
---------------|------------------------|---------------|


  H.           H           W                Q     4x
------------------------|-------------------------||
------------------------|-------------------------||
------------------------|------------------------*||
--7------------L--------|------------------------*||
--7------------L--------|-------------------------||
------------------------|-------------------------||




Duration Legend
---------------
W - whole
H - half
Q - quarter
E - 8th
S - 16th
T - 32nd
X - 64th
. - note dotted
|-n-|  - n-tuplets

Login or Register to remove this ad.

1 comment on 11:00 PM

Very nice!

Thank you! :)