Ads

Able Sisters (Animal Crossing: New Horizons) Guitar Tab

Submitted: Mar 27, 2021 by H.F. (Last updated: Apr 05, 2021)

5
Average: 5 (1 vote)
Download | Listen
Game: Animal Crossing: New Horizons
Composer(s): Yasuaki Iwata; Yumi Takahashi; Shinobu Nagata; Sayako Doi; Masato Ohashi
Style: Arrangement, Fingerstyle
Series: Animal Crossing

AutoScroll: Slow | Medium | Fast
PDF available in "Listen" link.

Title: Able Sisters
Album: Animal Crossing: New Horizons
Music: Yasuaki Iwata, Yumi Takahashi, Shinobu Nagata, Sayako Doi, Masato Ohashi
Tabber: H.F.

Tempo = 114

Legend
h - hammer on/pull off
^ - brush down

                                                             
E ||---------------------------|----------------------------|
B ||-------3--------3----------|--------2--------2----------|
G ||o------4--------4----------|--------4--------4----------|
D ||o2-------------------------|-----------2--2-------------|
A ||----------2--2-------------|--0-----------------0-------|
E ||---------------------------|----------------------------|

                                                          
----------------------------|----------------------------|
--------2--------2----------|--------1--------4----------|
--------2--------2----------|--------2--------0----------|
--0-------------------------|--------------------1-------|
-----------0--0-------------|-----------2--2-------------|
----------------------------|--1-------------------------|

                                                          
--------2--0----------------|--------------------2--0----|
--------3-----0--------0----|--2--0-----------0----------|
-----------------0----------|--------0-------------------|
--2-------------------------|--------------2-------------|
--------------2-------------|--0-------------------------|
----------------------------|----------------------------|

                                                                             
----------------------------------------------------------------------------|
--0-----------------0h----2h----0-------------------------------------------|
--------------------2-----------------2-------------------------------------|
--0-------------------------------------------------------------------------|
--------------------------------------0-------------------------------------|
----------------------------------------------------------------------------|

                                                          
----------------------------|--------2--0----------------|
--------1--------4----------|--------3-----0--------0----|
--------2--------0----------|-----------------0----------|
--------------------1-------|--2-------------------------|
-----------2--2-------------|--------------2-------------|
--1-------------------------|----------------------------|

                             
--------------------2--0----|
--2--0-----------0----------|
--------0-------------------|
--------------2-------------|
--0-------------------------|
----------------------------|

                                                                             
----------------------------------------------------------------------------|
--0-----------------0h----2h----0-------------------------------------------|
--------------------2-----------------2-------------------------------------|
--0-----------------------------------------------------0-------------------|
--------------------------------------0--------------------------4----------|
----------------------------------------------------------------------------|

  ^                                                                        
--2-------------|----------------------------|--4--2----------------------|
--3-------------|--------0--2--3--------0----|--------3-----------2--3----|
--3-------------|--------2--------2----------|--------1--------1----------|
----------------|----------------------------|----------------------------|
--3--------3----|--2-------------------------|--------------2-------------|
--------2-------|--------------2-------------|--0-------------------------|

                                                                             
--0h----2h----0-------------------------------------------------------------|
--------------------2-------------------------------------------------------|
--------------------1--------------------------1----------------------------|
--------------------------------------2-------------------------------------|
--0-------------------------------------------------------------------------|
----------------------------------------------------------------------------|

                                                          
----------------------------|----------------------------|
--------4--------4----------|--------0--2--3--------0----|
--------5--------5----------|-----------------2----------|
-----------4--4-------------|--------------4-------------|
--3-----------------3-------|--2-------------------------|
----------------------------|----------------------------|

                             
--4--2----------------------|
--------3-----------2--3----|
--------1--------1----------|
--2-----------------2-------|
--------------2-------------|
----------------------------|

                                                                             
--0h----2h----0-------------------------------------------------------------|
--------------------0-------------------------------------------------------|
--------------------0-------------------------------------------------------|
--------------------------------------------------------2-------------------|
--------------------------------------2-------------------------------------|
--0-------------------------------------------------------------------------|

                 ^
--2--2--2--------5----------|----------------------------|
--2--2--2--------6----------|--------3--------3----------|
-----------------6----------|--------4--------4----------|
----------------------------|--2-------------------------|
--0--0--0-------------------|-----------2--2-------------|
----------------------------|----------------------------|


----------------------------|----------------------------|
--------2--------2----------|--------2--------2----------|
--------4--------4----------|--------2--------2----------|
-----------2--2-------------|--0-------------------------|
--0-----------------0-------|-----------0--0-------------|
----------------------------|----------------------------|


---------------------------|||
--------1--------4---------|||
--------2--------0--------o|||
--------------------1-----o|||
-----------2--2------------|||
--1------------------------|||

Login or Register to remove this ad.