Ads

6AM (Animal Crossing: New Horizons) Guitar Tab

Submitted: Jun 26, 2020 by Alleeelex (Last updated: Jun 27, 2020)

5
Average: 5 (3 votes)
Download | Listen
Game: Animal Crossing: New Horizons
Composer(s): Yasuaki Iwata; Yumi Takahashi; Shinobu Nagata; Sayako Doi; Masato Ohashi
Style: Arrangement, Fingerstyle
Series: Animal Crossing

This song is also called 6:00 AM

AutoScroll: Slow | Medium | Fast
6AM
Animal Crossing: New Horizons
Yasuaki Iwata, Yumi Takahashi, Shinobu Nagata, Sayako Doi, Masato Ohashi
Alleeelex
June 25, 2020

BPM - 74
4/4 time
     ^       ^               ^       ^               ^       ^               ^       ^
     Q    E  E  Q    Q       Q    E  E  Q    Q       Q    E  E  Q    Q       Q    E  E  Q    Q
E||--2-------3------------|--5-------3------------|--2-------3------------|--5-------3------------|
B||--2-------3------------|--5-------3------------|--2-------3------------|--5-------3------------|
G||--2-------4------------|--6-------4------------|--2-------3------------|--5-------4------------|
D||--0----0---------------|--0----0---------------|--0----0---------------|--3----3---------------|
A||-------------0----0----|-------------0----0----|-------------3----3----|-------------0----0----|
E||-----------------------|-----------------------|-----------------------|-----------------------|

 1.___________________                             2.____________________
  ^                                                  ^                      ^
  Q    Q    Q    E  E     E.  S E  E  Q    Q         Q    Q    Q    Q       Q    E  E  E.  S E  E
--2-----------------2--|------7----5-------------||--2-------------------|--5-------2------7----5--|
--2--------------------|--3----------------------||--3-------------------|--3----------3-----------|
--2--------------------|------------------------*||--4-------------------|--4----------------------|
--0---------0----------|--0-----------0---------*||-------0---------0----|-------2-----------------|
-------0---------0-----|--------0----------0-----||----------------------|--0----------0-----7-----|
-----------------------|-------------------------||--3---------3---------|-------------------------|


  ^                                               ^                         ^                 ^
  Q    Q    Q    Q       E.  S E  E  Q    Q       Q    E  E  E.  S E  E     Q    Q    Q    E  E
--0-------------------|--0---2----5------------|--2-------2------7----5--|--0-----------------5--|
--0-------------------|------------------------|--3----------3-----------|--0-----------------5--|
--2-------------------|------------------------|--4----------------------|--2-----------------5--|
--0---------0---------|--0-----------0---------|-------0-----------0-----|-------2---------0--3--|
-------0---------0----|--------0----------0----|-------------------------|--0---------0----------|
----------------------|------------------------|--3----------3-----------|-----------------------|


                                                                 D.C.
  H        E.  E.  E     H        E.  E.  E     W
--L----------------5--|--L----------------5--|--L----------------||
--L------------5------|---------------5------|-------------------||
--L--------7----------|-----------7----------|-------------------||
--L-------------------|----------------------|-------------------||
----------------------|----------------------|-------------------||
----------------------|----------------------|-------------------||


Duration Legend
---------------
W - whole
H - half
Q - quarter
E - 8th
S - 16th
. - note dotted



Tablature Legend
----------------
L - tied note
^ - brush up
Login or Register to remove this ad.

1 comment on 6AM

these are great.

these are great. i love how short the hourly themes are.