Ads

Title Theme (Animal Crossing: City Folk) Guitar Tab

Submitted: Feb 24, 2017 by SolidusArmor

5
Average: 5 (2 votes)
Download | Listen
Game: Animal Crossing: City Folk
Composer(s): Manaka Tominaga, Shiho Fujii
Style: Transcription

AutoScroll: Slow | Medium | Fast
Tuning: Standard EADGBe 


 Section 1
e|---------------------------|----------------------------------|
B|------2--3--2--------------|----------2--3--5--3--2--3--5-----|
G|---------------------4-----|------------------------------4---|
D|---2----------4---2--------|------2---------------------------|
A|-0-------------------------|---0------------------------------|
E|---------------------------|----------------------------------|

 Section 2
e|------------/7--5--4--------------------|-------5--9--10-----10--9---12----------9------------------------|
B|--3--2--5-------------7--5-----7--5-----|-7--5--------------------------12--10------9----9-10-9---------10|
G|----------------------------7-----------|-------------------------------------------------------11-9--9---|
D|------------------------------------7-7-|-----------------------------------------------------------------|
A|----------------------------------------|-----------------------------------------------------------------|
E|----------------------------------------|-----------------------------------------------------------------|


 Section 3
e|--9-------------9-7-9-7-----------|
B|-----12----------------------10---|
G|---------9----9---------9--9------|
D|----------------------------------|
A|----------------------------------|
E|----------------------------------|

e|-------9--11--13---9---|------------------|
B|--12-------------------|---------11--12---|
G|-----------------------|-11--11-----------|
D|-----------------------|------------------|
A|-----------------------|------------------|
E|-----------------------|------------------|

************************************
| /   Slide up
************************************
Login or Register to remove this ad.