5:00 AM (Animal Crossing: City Folk) Ukulele Tab

Submitted: May 08, 2017 by Alleeelex

0
Download | Listen
Game: Animal Crossing: City Folk
Composer(s): Manaka Tominaga, Shiho Fujii
Style: Natural harmonics, Transcription

AutoScroll: Slow | Medium | Fast
Animal Crossing City Folk
5:00 AM
Composed by: Manaka Tominaga, Shiho Fujii, Kazumi Totaka
Alex
4/7/17

      E.  E.  E  H           W                   Q.     Q.     Q       W        
A||--10-------------------|-------------------|---------------------|-------------------|
E||----------10--L--------|--L----------------|---------2-----------|--L----------------|
C||-----------------------|-------------------|----------------2----|-------------------|
G||------11---------------|-------------------|--0------------------|-------------------|

   E.  E.  E  H           W  (Rest x3)        E.  E.  E  H           W
-----------------------|-------------------|----------------------|-------------------|
------<7>--------------|-------------------|------2---------------|-------------------|
--<5>------------------|-------------------|----------2--L--------|--L----------------|
---------<12>-L--------|-------------------|--0-------------------|-------------------|

   Q.     Q.     Q       W                   E.  E.  E  H           W  (Rest x3)
--10------------------|-------------------|--3-------------------|-------------------||
----------------10----|--L----------------|----------3--L--------|------------------o||
----------------------|-------------------|----------------------|------------------o||
---------11-----------|-------------------|------4---------------|-------------------||

Repeat for 1 hour


Duration Legend
---------------
W - whole
H - half
Q - quarter
E - 8th
S - 16th
T - 32nd
X - 64th
. - note dotted
|-n-|  - n-tuplets


Tablature Legend
----------------
L - tied note
g - grace note
^ - brush up
Login or Register to remove this ad.