Ads

2 AM (Animal Crossing: City Folk) Guitar Tab

Submitted: Apr 03, 2021 by H.F. (Last updated: Apr 09, 2021)

5
Average: 5 (7 votes)
Download | Listen
Game: Animal Crossing: City Folk
Composer(s): Manaka Tominaga, Shiho Fujii
Style: Arrangement, Fingerstyle

Click here for a video example.

AutoScroll: Slow | Medium | Fast
Title: 2 AM
Artist: Animal Crossing City Folk
Music: Manaka Tominaga, Shiho Fujii
Tabber: H.F.

Tempo = 92


E ||------------|-------------|-------------|-------------|
B ||----2-------|-----0-------|-----2-------|-----0-------|
G ||o---1-------|-------------|-----1-------|-------------|
D ||o-----------|-----4-------|-------------|-----4-------|
A ||-0----------|-------------|--0----------|-------------|
E ||------------|--3----------|-------------|--3----------|


-----------0L-0-------------------------|
--2-------------------------------------|
--------------1-------------------------|
----------------------------------------|
--0-------------------------------------|
----------------------------------------|


----------------------------------------|-------------|-------------|
--3--------0L-0-------------------------|--2-----2----|--0----------|
----------------------------------------|-----2-------|-------------|
--------------4-------------------------|-------------|-----4-------|
----------------------------------------|--0----------|-------------|
--3-------------------------------------|-------------|--3----------|


-------------|--4-----5----|--0----------|-------|--2--4--5----|--4----------|
-----0--2----|-----4-------|-----3-------|-------|--2----------|-----6-------|
--2----------|--4----------|-----2-------|--1----|-------------|--4----------|
--4----------|-------------|--2----------|-------|--0----------|-------------|
-------------|-------------|-------------|-------|-------------|--4----------|
-------------|-------------|-------------|-------|-------------|-------------|


--0--2--4----|--2----------|-------------|--0----------|-------|-------|
--0----------|-----5-------|--------2----|-----3-------|-------|-------|
-------------|--3----------|-----2-------|--------1----|--2----|-------|
-------------|-------------|--4----------|--2----------|--1----|--2----|
--4----------|-------------|--2----------|-------------|--3----|--4----|
-------------|-------------|-------------|-------------|-------|-------|


-------------|-------------|-------------|-------------|-------------|
-------------|-------------|-----4-------|-----2-------|-------------|
--2--2--2----|--2--1-------|--1----------|-----1-------|--1--1--1----|
--4----------|--------4----|--2----------|-------------|-----2-------|
-------------|--2----------|-------------|--2----------|--4----------|
-------------|-------------|-------------|-------------|-------------|


-------------|-------------|-------------|-----7-------|-------------|
-------------|-----2-------|-----3-------|-----8-------|--2--2--2----|
--1----------|-----2-------|-----2-------|-----7-------|--2----------|
-----4--2----|--4----------|--2----------|--7----------|--0----------|
-----1-------|--2----------|-------------|-------------|-------------|
--2----------|-------------|-------------|-------------|-------------|


-------------|-------------|-------------|-------|------|||
--2--0-------|--0--0--0----|--0----------|-------|------|||
--------2----|--1----------|-----2--1----|--2----|-----o|||
--4----------|-------------|--2----------|-------|--5--o|||
-------------|--4----------|-------------|--2----|------|||
-------------|-------------|-------------|-------|--5---|||

Login or Register to remove this ad.

2 comments on 2 AM

Awesome!

5

Awesome!

I love it.

5

I love it.