Storm Song (Angel Beats!) Guitar Tab

Submitted: Sep 25, 2013 by corntastic

3.666665
Average: 3.7 (3 votes)
Download | Listen
Game: Angel Beats!
Composer(s): Jun Maeda
Style: Transcription

AutoScroll: Slow | Medium | Fast
Storm Song
Angel Beats!
Jun Maeda
corntastic
21 9 2013


e-------------------------------------------------------------------------
B--7-9-9-9-9-9----7-9-9-9-9-9----7-9-9-9-9-9--11--9-7-9-------------------
G-------------------------------------------------------------------------
D-------------------------------------------------------------------------
A-------------------------------------------------------------------------
E-------------------------------------------------------------------------

e--------------------------------------------------------------------------------
B--7-9-9-9-9----7-9-9-9-9-9-7-------------------7-----------------9--------------
G-----------------------------10-8----8-10-8-6-----6s8--8-10-8-6-----8--6-6-6-6--
D--------------------------------------------------------------------------------
A--------------------------------------------------------------------------------
E--------------------------------------------------------------------------------


e--------------------------------------9--8-6-8---------------------------
B--13-9--11--9--13-9-9-11-9---8-9-9-8-------------------------------------
G-------------------------------------------------------------------------
D-------------------------------------------------------------------------
A-------------------------------------------------------------------------
E-------------------------------------------------------------------------

e-------------------------------------------------------------------------
B--13-9--11--9--13-9-9-11-9---8-9-9--11-9-8-9-----------------------------
G-------------------------------------------------------------------------
D-------------------------------------------------------------------------
A-------------------------------------------------------------------------
E-------------------------------------------------------------------------

e----------------------------------------9--8-6-8-------------------------
B--13-9--11--9--13-9-9-11-9---8-8-9-9-8-----------------------------------
G-------------------------------------------------------------------------
D-------------------------------------------------------------------------
A-------------------------------------------------------------------------
E-------------------------------------------------------------------------


e--6-8-8-8-8--6-8-8-11----------------------------------------------------
B----------------------9---13-9-11-9-11---13-9-11-9-11L--11-13-13---------
G-------------------------------------------------------------------------
D-------------------------------------------------------------------------
A-------------------------------------------------------------------------
E-------------------------------------------------------------------------


_____________________________________________________________________________________
| e-------------------------------------------------------------------------
| B-------------------------------------------------------------------------
| G--8-8-6-8p6h8--8-8-6-8p6h8--8-8-6-8p6h8--8-8-6-8-6-----------------------
| D---------------------------------------------------8-6-------------------
| A-------------------------------------------------------------------------
| E------------------------------------------------------------------------- x2
|
| e-------------------------------------------------------------------------
| B-----------------------------------------------7-6-----------------------
| G--8-8-6-8p6h8--8-8-6-8p6h8--8-8-6-8p6h8--8-8-6-----8-6-------5-----------
| D---------------------------------------------------------8---------------
| A-------------------------------------------------------------------------
| E-------------------------------------------------------------------------
|
|
|______at the same time as____________________________________________________________
|
| e------------8----------------8-----------------8-------------------------
| B--9--11--9-----9-----8----9-----9----8--11--9-----11---13-14--11--9------
| G------------------8------------------------------------------------------
| D-------------------------------------------------------------------------
| A-------------------------------------------------------------------------
| E-------------------------------------------------------------------------
_______________________________________________________________________________________

e------------------------------------------------------------------------------
B------------7-----------------9-----------------------------------------------
G--8-10-8-6-----6s8--8-10-8-6-----8--6-6-6-6-----------------------------------
D------------------------------------------------------------------------------
A------------------------------------------------------------------------------
E------------------------------------------------------------------------------


e-----------------------------------------9--8-6-8------------------------
B--13-9--11--9--13-9-9-11-9---8-8-8-9-9-8---------------------------------
G-------------------------------------------------------------------------
D-------------------------------------------------------------------------
A-------------------------------------------------------------------------
E-------------------------------------------------------------------------

e-------------------------------------------------------------------------
B--13-9--11--9--13-9-9-11-9---8-8-9--11-9-8-9---11------------------------
G-------------------------------------------------------------------------
D-------------------------------------------------------------------------
A-------------------------------------------------------------------------
E-------------------------------------------------------------------------

e-------------------------------------9--8-6-8----------------------------
B--13-9--11--9--13-9-9-11-9---8-9-9-8-------------------------------------
G-------------------------------------------------------------------------
D-------------------------------------------------------------------------
A-------------------------------------------------------------------------
E-------------------------------------------------------------------------


e--6-8-8-8-8--6-8-8-11-------------------------------------------------------------------
B----------------------9---13-9-11-9-11---13-9-11-9-11---13-9-11-9-11L--11-13-13---------
G----------------------------------------------------------------------------------------
D----------------------------------------------------------------------------------------
A----------------------------------------------------------------------------------------
E----------------------------------------------------------------------------------------


Login or Register to remove this ad.