Shine Days (Angel Beats!) Guitar Tab

Submitted: Oct 29, 2013 by corntastic (Last updated: Oct 30, 2013)

5
Average: 5 (3 votes)
Download | Listen
Game: Angel Beats!
Composer(s): Jun Maeda
Style: Transcription

AutoScroll: Slow | Medium | Fast
Shine Days
Angel Beats!
Jun Maeda, LiSa
corntastic
25 10 2013


e-------------------------------------------------------------------------
B--10-8--8----------------------------8-------------------8-10-8----------
G----------10--9-10------------9--10-----10--9----------------------------
D--------------------10----10-------------------10-8-7--------------------
A-------------------------------------------------------------------------
E-------------------------------------------------------------------------

e-------------------------------------------------------------------------
B--10-8--8----------------------------8-----------------------------------
G----------10--9-10------------9--10-----10--9--10-10---------------------
D--------------------10----10---------------------------------------------
A-------------------------------------------------------------------------
E-------------------------------------------------------------------------

e-------------------------------------------------------------------------
B--10-8--8----------------------------8-------------------8-10-8----------
G----------10--9-10------------9--10-----10--9----------------------------
D--------------------10----10-------------------10-8-7--------------------
A-------------------------------------------------------------------------
E-------------------------------------------------------------------------

e----------------8--------------------------------------------------------
B--10-8--8----------11-------8--10--8-------------------------------------
G----------10--9----------10-----------10--9--10-10-----------------------
D-------------------------------------------------------------------------
A-------------------------------------------------------------------------
E-------------------------------------------------------------------------

______________________________________________________________________________________


e---------------------------------7------------10--8-7--7-----------------
B--10--10---10-10-10---10-10-10-----10----8--8------------10-10s8---------
G---------7----------7----------7-----------------------------------------
D-------------------------------------------------------------------------
A-------------------------------------------------------------------------
E-------------------------------------------------------------------------

e-------------------------------------------------------------------------
B--8---8-8-------------------------------------7--8--8--------------------
G----7-----7--------------------------------7-----------------------------
D-------------10--9--7-----9-7-----7-9--10--------------------------------
A-----------------------10------10----------------------------------------
E-------------------------------------------------------------------------

e---------------------------------7--------------10--8-7--7---------------
B--10-10-10---10--10---10-10-10-----10----8-8--8------------10--8---------
G-----------7--------7----------7-----------------------------------------
D-------------------------------------------------------------------------
A-------------------------------------------------------------------------
E-------------------------------------------------------------------------

e-------------------------------------------------------------------------
B--8---8-8----------------------------------------------------------------
G----7------7-------------------------------------------------------------
D-------------10--9--7-----9-7--------------------------------------------
A-----------------------10------------------------------------------------
E-------------------------------------------------------------------------

______________________________________________________________________________________


e-------------------------------------------------------------------------
B--10-8--8----------------------------8-------------------8-10-8----------
G----------10--9-10------------9--10-----10--9----------------------------
D--------------------10----10-------------------10-8-7--------------------
A-------------------------------------------------------------------------
E-------------------------------------------------------------------------

e-------------------------------------------------------------------------
B--10-8--8----------------------------8-----------------------------------
G----------10--9-10------------9--10-----10--9--10-10---------------------
D--------------------10----10---------------------------------------------
A-------------------------------------------------------------------------
E-------------------------------------------------------------------------

e-------------------------------------------------------------------------
B--10-8--8----------------------------8-------------------8-10-8----------
G----------10--9-10------------9--10-----10--9----------------------------
D--------------------10----10-------------------10-8-7--------------------
A-------------------------------------------------------------------------
E-------------------------------------------------------------------------

e----------------8--------------------------------------------------------
B--10-8--8----------11-------8--10--8-------------------------------------
G----------10--9----------10-----------10--9--9-10------------------------
D-------------------------------------------------------------------------
A-------------------------------------------------------------------------
E-------------------------------------------------------------------------

______________________________________________________________________________________


e---------------------------------7------------10--8-7-7-7----------------
B--10--10---10-10-10---10-10-10-----10----8--8-------------10-10s8--------
G---------7----------7----------7-----------------------------------------
D-------------------------------------------------------------------------
A-------------------------------------------------------------------------
E-------------------------------------------------------------------------

e-------------------------------------------------------------------------
B--8---8-8-------------------------------------7--8--8--------------------
G----7-----7--------------------------------7-----------------------------
D-------------10--9--7-----9-7-----7-9--10--------------------------------
A-----------------------10------10----------------------------------------
E-------------------------------------------------------------------------

e-----------------------------------7--------------10--8-7--7-------------
B--10-10-10---10-10-10---10-10-10-----10----8-8--8------------10-10-8-----
G-----------7----------7----------7---------------------------------------
D-------------------------------------------------------------------------
A-------------------------------------------------------------------------
E-------------------------------------------------------------------------

e-------------------------------------------------------------------------
B--8---8-8-------------------------------------7--8-----------------------
G----7------7-------------------------------7-----------------------------
D-------------10--9--7-----9-7-----7-9--10--------------------------------
A-----------------------10------10----------------------------------------
E-------------------------------------------------------------------------

______________________________________________________________________________________


e----8--7---------------------8----7--------------------------------------
B--8-------10--8----8-8-10--------------10----8---------------------------
G-------------------------------------------------------------------------
D-------------------------------------------------------------------------
A-------------------------------------------------------------------------
E-------------------------------------------------------------------------

e-------------------------------8----7------------------------------------
B--7----8-------------------------------10--------------------------------
G------------7------------------------------------------------------------
D---------------10--9--10--9----------------------------------------------
A-------------------------------------------------------------------------
E-------------------------------------------------------------------------

e--8--7---------------------8----7----------------------------------------
B--------10--8----8-8-10--------------10----8-----------------------------
G-------------------------------------------------------------------------
D-------------------------------------------------------------------------
A-------------------------------------------------------------------------
E-------------------------------------------------------------------------

e-------------------------------8----7------------------------------------
B--7----8-------------------------------10--8-----------------------------
G------------7------------------------------------------------------------
D---------------10--9--10--9----------------------------------------------
A-------------------------------------------------------------------------
E-------------------------------------------------------------------------

______________________________________________________________________________________


e--------------------------------7----------------------------------------
B-------8--8-------------8--8-10-----------8--8-------------8--8-7-8------
G--7--7-------------7--7--------------7--7-------------7--7---------------
D------------7s9--------------------------------7s9-----------------------
A-------------------------------------------------------------------------
E-------------------------------------------------------------------------


______________________________________________________________________________________


e---------------------------------7------------10--8-7--7-----------------
B--10--10---10-10-10---10-10-10-----10----8--8------------10-10-8---------
G---------7----------7----------7-----------------------------------------
D-------------------------------------------------------------------------
A-------------------------------------------------------------------------
E-------------------------------------------------------------------------

e-------------------------------------------------------------------------
B--8---8-8-------------------------------------7--8--8--------------------
G----7-----7--------------------------------7-----------------------------
D-------------10--9--7-----9-7-----7-9--10--------------------------------
A-----------------------10------10----------------------------------------
E-------------------------------------------------------------------------

e---------------------------------7--------------10--8-7--7---------------
B--10-10-10---10--10---10-10-10-----10----8-8--8------------10--8---------
G-----------7--------7----------7-----------------------------------------
D-------------------------------------------------------------------------
A-------------------------------------------------------------------------
E-------------------------------------------------------------------------

e-------------------------------------------------------------------------
B--8---8-8-------------------------------------7--8-----------------------
G----7------7-------------------------------7-----------------------------
D-------------10--9--7-----9-7-----7-9--10--------------------------------
A-----------------------10------10----------------------------------------
E-------------------------------------------------------------------------

______________________________________________________________________________________


e----8--7---------------------8----7--------------------------------------
B--8-------10--8----8-8-10--------------10----8---------------------------
G-------------------------------------------------------------------------
D-------------------------------------------------------------------------
A-------------------------------------------------------------------------
E-------------------------------------------------------------------------

e-------------------------------8----7------------------------------------
B--7----8-------------------------------10--------------------------------
G------------7------------------------------------------------------------
D---------------10--9--10--9----------------------------------------------
A-------------------------------------------------------------------------
E-------------------------------------------------------------------------

e--8--7---------------------8----7----------------------------------------
B--------10--8----8-8-10--------------10----8-----------------------------
G-------------------------------------------------------------------------
D-------------------------------------------------------------------------
A-------------------------------------------------------------------------
E-------------------------------------------------------------------------

e-------------------------------8----7------------------------------------
B--7----8-------------------------------10--8--8--------------------------
G------------7------------------------------------------------------------
D---------------10--9--10--9----------------------------------------------
A-------------------------------------------------------------------------
E-------------------------------------------------------------------------

______________________________________________________________________________________

e---------------10~-------15--14--12-10-----------------------------------
B--7--8-------------------------------------------------------------------
G-------------------------------------------------------------------------
D-------------------------------------------------------------------------
A-------------------------------------------------------------------------
E-------------------------------------------------------------------------

e--7--8-10--7-------------------------------------------------------------
B--------------10--8----10--8----10--8--------7----8----------------------
G-------------------------------------------------------------------------
D-------------------------------------------------------------------------
A-------------------------------------------------------------------------
E-------------------------------------------------------------------------
Login or Register to remove this ad.