Nocturne in the Afternoon (Angel Beats!) Guitar Tab

Submitted: Jul 29, 2017 by Ttegdap

5
Average: 5 (4 votes)
Download | Listen
Game: Angel Beats!
Composer(s): Jun Maeda
Style: Arrangement, Artificial harmonics, Fingerstyle

AutoScroll: Slow | Medium | Fast
Based on a Transcription found here: https://musescore.com/user/2509106/scores/837166

Play freely and let ring whenever possible.

BPM~60

     E  E  E  E  E  E  E  E     E  E  E.  S E  E  E  E     E  E  E  E  E  E  E  E   
E||--------------------------|--------------------------|--------------------------|
B||--0--------0--0--------0--|--0--3--1---0-0-----------|--1-----0--1--1-----0--1--|
G||--------3-----------3-----|--------------------2-----|--------2-----------------|
D||-----0--------1-----------|--2--------------2-----2--|-----2--------2-----------|
A||-----------------0--2-----|--------------0-----------|--0--------------0--------|
E||--3-----------2-----------|--4-----0-----------------|--------------3--------3--|


  E  E  E  S S E  E  E  E     E  E  E  E  E  E  E  E     E  E  E  E  E  E  E  E   
-----3--2----0-0-----------|-----8--7--5--5--3--2--3--|--2--0--------------------|
--1------------0-----3-----|--------0--0--------3-----|--3-----3--1--0-----0-----|
-----2-----2------------0--|--7--0--------------4-----|--0-----0--------------2--|
--4-----0---------0--------|--------------------0-----|-----2-----------4--------|
---------------------------|-----------------2--------|--3-----------6-----------|
---------------3-----------|--7-----------------------|--------------------------|


  E  E  E  E  Q    Q       E  E  E  E  Q    Q       E  E  E  E  E  E  E  E   
--------------2----0----|--0-----------2---------|--------------------------|
--------------0---------|--1-----1-----4----3----|--0--------0--0--------0--|
--2--0-----0--0---------|-----------0--5----2----|--------3--0--------3-----|
--4--2--4--2------------|-----2--------0----4----|--------0-----1-----------|
--------6-----4---------|--0----------------3----|-----2-----------0--2-----|
--0---------------------|------------------------|--3-----------2-----------|


  E  E  E  E  E  E  E  E     E  E  E  E  E  E  E  E     E  E  E  E  E  E  E  E   
--------------------------|--------------------------|-----3--2--0--0-----------|
--0--3--1--0--0-----------|--1-----0--1--1-----0--1--|--1--------1--0-----3-----|
--------------------2-----|--0-----0-----2-----------|-----2-----2-----------0--|
--2--------------2-----2--|-----2--------------2-----|--4-----0-----------0-----|
--------------0-----------|--0--------------3--------|-----------------2--------|
--4-----0-----------------|--------------3-----------|--------------3-----------|


  E   E  E  E  E  E  E  E     E  E  E  E  E  Q    E     E  E  E  E  E  E  E  E   
-----10--8--7--5--3--2--0--|--2--0-------------------|--------------2--0-----0--|
---------0--0--------0-----|--0-----3--1--0----------|--------------------4-----|
--7---0-----------0--------|--------0-------------2--|--2--0-----0-----0--4-----|
---------------0-----------|-----2-----------4-------|--------4-----------------|
---------------------------|--3-----------6----------|--------2-----4-----------|
--7------------------------|-------------------------|--0--3--------------------|


                                                                    ^         
  E  E  E  E  Q    Q       E  E  E  E  E  E  E  E     E   E  E  E   H         
--3--0------------------|--7-----6--7--7-----6--7--|--7--10--8--7--12--------|
--1-----1----------3----|-----0--8-----------4-----|--9--12--5---------------|
-----0-----0-------5----|--0--------------4--------|---------------12--------|
--------2-----4----4----|--------------4-----------|-------------------------|
--0--------3--5---------|--------------------------|----------------0--------|
-------------------2----|--------------------------|--0----------------------|


  H        H           E  E  E  E  E  E    E    E       H.           H          
--0--------2--------|--3--------------3------------|--<>3---------------------||
--1--------4--------|--------------3----------<>3--|--------------------------||
--0--------5--------|--4--------4--------<>4-------|--------------------------||
--0-----------------|--------5---------------------|--------------------------||
--------------------|-----5------------------------|--------------------------||
--------------------|--3---------------------------|--------------------------||




Duration Legend
---------------
W - whole
H - half
Q - quarter
E - 8th
S - 16th
T - 32nd
X - 64th
. - note dotted
|-n-|  - n-tuplets


Tablature Legend
----------------
L - tied note
x - dead note
g - grace note
(n) - ghost note
> - accentuded note
NH - natural harmonic
AH - artificial harmonic
TH - tapped harmonic
SH - semi harmonic
PH - pitch harmonic
h - hammer on
p - pull off
b - bend
br - bendRelease
pb - preBend
pbr - preBendRelease
brb - bendReleaseBend
\n/ - tremolo bar dip
\n - tremolo bar dive
-/n - tremolo bar Release up
/n\ - tremolo bar inverted dip
/n - tremolo bar return
-\n - tremolo bar Release down
S - shift slide
s - legato slide
/ -  slide into from below or out of upwards
\ -  slide into from above or out of downwards
~ - vibrato
W - wide vibrato
tr - trill
TP - tremolo picking
T - tapping
S - slap
P - pop
< - fade in
^ - brush up
v - brush down
Login or Register to remove this ad.