My Soul, Your Beats! (Angel Beats!) Guitar Tab

Submitted: Oct 29, 2010 by StrangeJam (Last updated: Oct 29, 2010)

4.833335
Average: 4.8 (6 votes)
Download | Listen
Game: Angel Beats!
Composer(s): Jun Maeda
Style: Arrangement, Pinch harmonics

Click here for a video example.

AutoScroll: Slow | Medium | Fast
                                                  My soul, your beats                                                   


Lead
       E   Q     Q      Q     E      W                     E   Q     Q      Q     E      W                 
E||--/14--12----------------------|-------------------|--/14--12----------------------|-------------------|
B||-------------15----/12---------|-------------------|-------------15----/12---------|-------------------|
G||--------------------------14~--|--L----------------|--------------------------14~--|--L----------------|
D||-------------------------------|-------------------|-------------------------------|-------------------|
A||-------------------------------|-------------------|-------------------------------|-------------------|
E||-------------------------------|-------------------|-------------------------------|-------------------|


    E   Q     Q      Q      E      E   H          Q    E      E    Q     Q     Q      E     W                  
--/14--12------------------17--|---L--17b~--------L----L--|--14s--12---------------------|--------------------|
-------------15s----17s--------|--------------------------|-------------15---------------|--------------------|
-------------------------------|--------------------------|-------------------14s----16--|--L~----------------|
-------------------------------|--------------------------|------------------------------|--------------------|
-------------------------------|--------------------------|------------------------------|--------------------|
-------------------------------|--------------------------|------------------------------|--------------------|


                                                               PM PM PM           PH       PM PM PM           PM  
  W                    W                   W                   E  E  E  Q    E    Q        E  E  E  H         E   
--------------------|-------------------|-------------------|---------------------------|------------------------|
--------------------|-------------------|-------------------|---------------------------|--------7---------------|
--L\----------------|-------------------|-------------------|--------7--7----6--<>9~----|--7--9-----6~-----------|
--------------------|-------------------|-------------------|-----7---------------------|------------------------|
--------------------|-------------------|-------------------|--9------------------------|---------------------9--|
--------------------|-------------------|-------------------|---------------------------|------------------------|


  PM PM           PH                              PM PM                                          
  E  E  Q    E    Q     E     W                   E  Q    Q    Q    E     E   H        Q     E   
---------------------------|-------------------|-----------------------|------------------------|
---------------------------|-------------------|-----------------------|------------------------|
-----7--7----6--<>7~----L--|--L----------------|----------6----7----9--|--L---------------------|
--7------------------------|-------------------|--9--9-----------------|-----/9--------L----/9--|
---------------------------|-------------------|-----------------------|------------------------|
---------------------------|-------------------|-----------------------|------------------------|


                                                PM PM PM                  PM PM      SH        PM  
  E  Q    Q    Q     E      W                   E  E  E  Q    E  E  E     E  E  E    H         E   
-------------------------|-------------------|-------------------------|--------------------------|
-------------------------|-------------------|-------------------------|--------7-----------------|
-----6-------------------|-------------------|--------7--7----6--9--9--|--7--9-----<>6~-----------|
----------7----9----/9~--|--L----------------|-----7-------------------|--------------------------|
-------------------------|-------------------|--9----------------------|-----------------------9--|
-------------------------|-------------------|-------------------------|--------------------------|


  PM PM           PH                                                                            
  E  E  Q    E    Q     E     W                   E  Q    Q    Q    E     E   H        Q    E   
---------------------------|-------------------|-----------------------|-----------------------|
---------------------------|-------------------|-----------------------|-----------------------|
-----7--7----6--<>7~----L--|--L----------------|----------6----7----9--|--L--------------------|
--7------------------------|-------------------|--9--9-----------------|-----/9--------L----9--|
---------------------------|-------------------|-----------------------|-----------------------|
---------------------------|-------------------|-----------------------|-----------------------|


  E  Q    Q     Q     E      E    H         Q    E       Q     E   Q      Q     E      Q     H           Q     
-------------------------|--------------------------|------------------------------|--------------------------|
-------------------------|--------------------------|---------10---------10--------|--------------------------|
-----6----7s----9----11--|---L--/11~--------L----L--|--/11--------11~----------12--|--11----------------------|
--L----------------------|--------------------------|------------------------------|--------12~--------/12----|
-------------------------|--------------------------|------------------------------|--------------------------|
-------------------------|--------------------------|------------------------------|--------------------------|


   E   Q     Q     E   Q        W                     E     E   E   E   Q       E   E      Q     E   H         E   
----------------------------|---------------------|--16-----------------------/16--19~--|--L----16--19~--------L--|
----------------------------|---------------------|--19br--19--19--17--17~--------------|-------------------------|
----------------------11----|--11~----------------|-------------------------------------|-------------------------|
--14--12----------14--------|---------------------|-------------------------------------|-------------------------|
------------14--------------|---------------------|-------------------------------------|-------------------------|
----------------------------|---------------------|-------------------------------------|-------------------------|


   E     E   E   E   Q       E   E      Q     E   Q.      Q          W                    H        E    E   E   E   
--16-----------------------/16--19~--|--L----16--19------19b~----|--19~----------------|--L--------L--/16----------|
--19br--19--19--17--17~--------------|---------------------------|---------------------|-------------------19--17--|
-------------------------------------|---------------------------|---------------------|---------------------------|
-------------------------------------|---------------------------|---------------------|---------------------------|
-------------------------------------|---------------------------|---------------------|---------------------------|
-------------------------------------|---------------------------|---------------------|---------------------------|


   E   H          E   E   E      Q     Q     Q     Q         E     E   E   E   Q      E   E    
------16~--------16----------|--------16----19-----------|--16-----------------------16--19~--|
--19-----------------19--17--|--19----------------19~----|--19br--19--19--17--17~-------------|
-----------------------------|---------------------------|------------------------------------|
-----------------------------|---------------------------|------------------------------------|
-----------------------------|---------------------------|------------------------------------|
-----------------------------|---------------------------|------------------------------------|


  Q     E   H         E      E     E   E   E   Q      E   E      Q      E   Q.       Q         W                  
--L----16--19~--------L--|--16-----------------------16--19~--|--L~----16--19~------19b----|--19~----------------|
-------------------------|--19br--19--19--17--17~-------------|----------------------------|---------------------|
-------------------------|------------------------------------|----------------------------|---------------------|
-------------------------|------------------------------------|----------------------------|---------------------|
-------------------------|------------------------------------|----------------------------|---------------------|
-------------------------|------------------------------------|----------------------------|---------------------|


                                                PH                                                             
  H        E    E   E   E      H          E     Q     E      H        E    E   Q        Q      Q     H         
--L--------L-------11------|-----------------------------|---------------/16--14----|-------------------------|
--------------/12------12--|--12-------------<>12~----L--|---L--------L-------------|--17s----14--------------|
---------------------------|------------/11--------------|--------------------------|---------------16--------|
---------------------------|-----------------------------|--------------------------|-------------------------|
---------------------------|-----------------------------|--------------------------|-------------------------|
---------------------------|-----------------------------|--------------------------|-------------------------|


  H          E   Q     E     E    Q     H         E     H          E   Q     E     E   Q     Q     Q    S S  
-----------/16--14--------|--------------------------|-----------/16--14--------|---------------------------|
----------------------17--|--L--/14------------------|----------------------17--|--L------------------------|
--L-----------------------|------------16~--------L--|--L-----------------------|-----16----18~----L----L-L-|
--------------------------|--------------------------|--------------------------|---------------------------|
--------------------------|--------------------------|--------------------------|---------------------------|
--------------------------|--------------------------|--------------------------|---------------------------|


   W                   W                  
--------------------|-------------------||
--------------------|-------------------||
---L----------------|--L----------------||
--------------------|-------------------||
--------------------|-------------------||
--------------------|-------------------||




Duration Legend
---------------
W - whole
H - half
Q - quarter
E - 8th
S - 16th
T - 32nd
X - 64th
. - note dotted
|-n-|  - n-tuplets


Tablature Legend
----------------
L - tied note
x - dead note
g - grace note
(n) - ghost note
> - accentuded note
NH - natural harmonic
AH - artificial harmonic
TH - tapped harmonic
SH - semi harmonic
PH - pitch harmonic
h - hammer on
p - pull off
b - bend
br - bendRelease
pb - preBend
pbr - preBendRelease
brb - bendReleaseBend
\n/ - tremolo bar dip
\n - tremolo bar dive
-/n - tremolo bar Release up
/n\ - tremolo bar inverted dip
/n - tremolo bar return
-\n - tremolo bar Release down
S - shift slide
s - legato slide
/ -  slide into from below or out of upwards
\ -  slide into from above or out of downwards
~ - vibrato
W - wide vibrato
tr - trill
TP - tremolo picking
T - tapping
S - slap
P - pop
< - fade in
^ - brush up
v - brush down
                                                
Login or Register to remove this ad.

2 comments on My Soul, Your Beats!

Great tab

Great tab, great job with this.
Keep up the good work.

Awesome! Thanks!

5

This was actually my first shot at a guitar tab. I am very pleased with the result, because while playing, I was always comparing myself to the actual song (which I love. Angel beats! Ftw!!), and was suprised by how accurate it is. It was hard, not to mention Im using an acoustic guitar, but hopefully I will be able to play the song on the guitar as fast and good as the original. Nice job!