My Song (Angel Beats!) Guitar Tab

Submitted: Feb 28, 2013 by Basisti94

4.555555
Average: 4.6 (9 votes)
Download | Listen
Game: Angel Beats!
Composer(s): Jun Maeda
Style: Arrangement, Fingerstyle

AutoScroll: Slow | Medium | Fast
                        My Song
                                
Angel Beats!
Girls Dead Monster
Arranged for guitar by Basisti94 (Miro Laaksonen)
27.2.2013


I tried to match the original as much as possible during those strumming parts 
but the timing might not be exactly the same.


Tempo ~ 80

     ^    ^  ^  v ^    ^  ^  v    ^    ^  ^  v ^    ^     
     Q    E  S  S Q    E  S  S    Q    E  S  S Q    Q     
E||----------------------------|-------------------------|
B||--1----1--1h-3-3----3--3p-0-|--0----0--0h-1-1----0----|
G||--2----2--2--2-2----2--2--2-|--2----2--2--2-2----2----|
D||--2----2--2--2-2----2--2--2-|--2----2--2--2-2----2----|
A||--0----0--0--0-0----0--0--0-|--0----0--0--0-0----0----|
E||----------------------------|-------------------------|


  ^    ^  ^  v ^    ^  ^     ^                   ^                         
  Q    E  S  S Q    E  E     W                   E  E  E  S S E  E  E  E   
--------------------------|-------------------|-----------0---------------|
--1----1--1h-3-3----3--1--|--0----------------|--3--1--3------------1--0--|
--2----2--2--2-2----2--0--|--0----------------|--0-----0----0-L--0--0-----|
--2----2--2--2-2----2--2--|--0----------------|--2--2------------2--------|
--0----0--0--0-0----0--0--|--2----------------|--3------------------------|
--------------------------|--0----------------|---------------3-----------|


  ^                           ^                         
  E  E  E  S S E  E  E  E     E  E  E  S S E  E  E  E   
-----------0---------------|-----------0-1-L--3--0--1--|
--3--1--3------------1--0--|--3--1--3---------------0--|
--0-----0----0-L--0--0-----|--2-----2------------0-----|
--2--2------------2--------|--2--2------------0--------|
--0------------------------|--0------------------------|
---------------3-----------|---------------3-----------|


  E  E  E  E  E  E  Q       E  E  E  S S E  E  E  E   
--1--------3--L----------|--3--------5---------------|
--------1-----------1----|--------6----3-L--3--5--6--|
-----2-----2-----0-------|-----5-----5------0--5-----|
--3----------------------|--3------------0-----------|
-------------------------|---------------------------|
--1-----------3----------|---------------------------|


  E  E  E  S S E  E  E  E     E  E  E  S S E  E  E  E   
--3--------5---------------|--3-----3--5---------------|
--------6----3-L--3--5--6--|--------6----3-L--1--3--1--|
-----5-----5------0--5-----|-----5-----5------0--0-----|
--3------------0-----------|--3------------0-----------|
---------------------------|---------------------------|
---------------------------|---------------------------|


  ^                 ^       ^                          ^                        
  E  E  E  E  E  E  Q       E  E  E  E  E  E  E  E     E  E  E  E  E  E  E  E   
-------------------------|-----------0--------------|-----------0--------------|
--0----------------------|--3--1--3-----------1--0--|--3--1--3-----------1--0--|
--2-----2-----------0----|--0-----0-----0-----0-----|--0-----0-----0-----0-----|
--2--2-----2-----2--0----|--2--2-----2-----2--------|--2--2-----2-----2--------|
--0-----------0-----2----|--3-----------------------|--0-----------------------|
--------------------3----|--------------3-----------|--------------3-----------|


  ^                                                     
  S S S S E  S S E  E  E  E     E  E  E  E  E  E  Q     
-------------0-1-L--3--0--1--|--1--------3--L----------|
--3---1---3---------------0--|--------1-----------1----|
--2---2----------------0-----|-----2-----2-----0-------|
--2-2---2-----------0--------|--3----------------------|
--0-------0------------------|-------------------------|
-----------------3-----------|--1-----------3----------|


  E  E  E  S S E  E  E  E     E  E  E  S S E  E  E  E   
--3--------5---------------|--3--------5---------------|
--------6----3-L--3--5--6--|--------6----3-L--3--5--6--|
-----5-----5------0--5-----|-----5-----5------0--5-----|
--3------------0-----------|--3------------0-----------|
---------------------------|---------------------------|
---------------------------|---------------------------|


                              ^                        
  E  E  E  S S E  E  E  E     E  E  E  E  E  E  E  E   
--3-----3--5---------------|--------------------------|
--------6----3-L--1--3--1--|--0-----------------0--1--|
-----5-----5------0--0-----|--2-----2--------2--2-----|
--3------------2-----------|--2--2-----2-----2--------|
---------------------------|--0-----------0-----------|
---------------------------|--------------------------|


  ^                            ^                 ^  ^   
  E  E  E  S S E  E  E  S S    E  E  E  E  E  E  E  E   
--3--------5------------0---|--------------------0--0--|
--5----------3-L-----3----3-|--1-----------0-----1--1--|
--5-----5---------2-----2---|--0-----0--0-----0--0--0--|
--5--5-----5---0------------|--2--2-----2--0-----2--2--|
--3-------------------------|--3-----------------3--3--|
----------------------------|--------------------------|

                                                   <
                                                   ^  ^  ^  ^               
  E  E  E  S S E  E  E  S S    E  E  E  E  Q       E  E  E  E  E  E  E  E   
--3--------5------------0---|--------------0----|--3--3--3--3--------------|
--------5----3-L-----3----3-|--1-----3-----1----|--4--4--4--4-----------0--|
-----5-----5------2-----2---|--------0----------|--3--3--3--3-----0--2-----|
---------------0------------|-----2-----2-------|--1--1--1--1--------------|
--0-------------------------|--3----------------|--------------------------|
----------------------------|-------------------|--------------------------|


  ^                          ^                        
  E  E  E  E  E  E  E  E     E  E  E  E  E  E  E  E   
--------------------------|--------------------------|
--0-----------------1--0--|--0-----------------------|
--0--------------0--------|--------2-----0-----------|
--0-----0-----------0-----|--3-----------------3-----|
--2--2-----2-----2-----2--|-----3-----3-----3-----3--|
--3-----------3-----------|--1-----------------------|


  ^                            ^                          
  E  E  E  S  S E  E  E  E     E  E  E  S  S E  E  E  E   
----------------------------|----------------------------|
--3--------1p-0-------------|--3--------1p-0-------------|
--0-----0-------0-----------|----------------0--0--2--0--|
--2-------------2-----2-----|--0-----0-------------4-----|
--2--2-----2-------2-----2--|-----0-----0-------0-----0--|
--0-------------------------|--2-------------------------|


  E  E  E  E  E  E  S S S  S    E  E  E  E  E  E  E  E   
-----------------------------|--------------------------|
-----0------------------1p-0-|--0-----------------------|
--2--0----------------0------|--------------------2--0--|
--------2-----0--------------|--------4-----2-----4-----|
--3--------3--------3--------|-----0-----0-----0-----0--|
-----------------3------3----|--2-----------------------|


  E  E  E  E  E  E  E  E     E  E  E  E  E  E  E  E   
--------------------------|--------------------------|
--------------------------|--------------------0--1--|
--2--0--------------0-----|-----------------0--------|
--------0-----4-----------|-----------3--------3-----|
-----2-----2-----2-----2--|-----1--3--------3--------|
--3-----------------------|--1-----------1-----------|


  ^                          ^                        
  E  E  E  E  E  E  E  E     E  E  E  E  E  E  E  E   
--------------------------|--------------------------|
--0-----------------1--0--|--0-----------------------|
--0--------------0--------|--------2-----0-----------|
--0-----0-----------0-----|--3-----------------3-----|
--2--2-----2-----2-----2--|-----3-----3-----3-----3--|
--3-----------3-----------|--1-----------------------|


  ^                            ^                          
  E  E  E  S  S E  E  E  E     E  E  E  S  S E  E  E  E   
----------------------------|----------------------------|
--3--------1p-0-------------|--3--------1p-0-------------|
--0-----0-------0-----------|----------------0--0--2--0--|
--2-------------2-----2-----|--0-----0-------------4-----|
--2--2-----2-------2-----2--|-----0-----0-------0-----0--|
--0-------------------------|--2-------------------------|


  E  E  E  E  E  E  S S S  S    E  E  E  E  E  E  E  E   
-----------------------------|--------------------------|
-----0------------------1p-0-|--0-----------------------|
--2--0----------------0------|--------------------2--0--|
--------2-----0--------------|--------4-----2-----4-----|
--3--------3--------3--------|-----0-----0-----0-----0--|
-----------------3------3----|--2-----------------------|


  E  E  E  E  E  E  E  E     E  E  E  E  E  E  E  E   
--------------------------|--------------------------|
--------------------------|--------------------------|
--2--0--------------------|--------------------2--0--|
--------2-----4-----4-----|--------2-----3-----3-----|
-----2-----2-----2-----2--|-----3-----3-----3-----3--|
--0-----------------------|--1-----------------------|


  E  E  E  E  E  E  E  E     E  E  E  E  E  E  E  E   
--------------------------|--------------------------|
--------------------------|--------------------------|
--2--0--------------------|--------------------2--0--|
--------2-----4-----4-----|--------2-----3-----3-----|
-----2-----2-----2-----2--|-----3-----3-----3-----3--|
--0-----------------------|--1-----------------------|


                             ^                   ^    ^  ^ v ^      ^   ^   
  E  E  E  E  E   E  Q       W                   Q    E  S S S  E.  E   E   
---------------------3----|--3----------------|----------------------------|
--------------0h--3-------|--3----------------|--2----2--2-2-2h-3---3p--0--|
--2--0-----0--------------|--0----------------|--2----2--2-2-2--2---2---2--|
--------0-----------------|--0----------------|--2----2--2-2-2--2---2---2--|
-----2--------------------|--2----------------|--0----0--0-0-0--0---0---0--|
--3-----------------------|--3----------------|----------------------------|


  ^  ^ v    ^   ^ v  ^  ^ v    ^  ^ ^    ^   ^ v  ^  ^   
  E  S S E  E.  S E  E  S S    E  S E  S E.  S E  E  E   
----------------------------|---------------------------|
--1--1-1----3---3-3--3--3-3-|--2--2-2----3---3-3--3--0--|
--2--2-2----4---4-4--4--4-4-|--2--2-2----2---2-2--2--2--|
--3--3-3----5---5-5--5--5-5-|--2--2-2----2---2-2--2--2--|
--3--3-3----5---2-2--2--2-2-|--0--0-0----0---0-0--0--0--|
--1--1-1----3---3-3--3--3-3-|---------------------------|


  ^  ^ v    ^   ^  v  ^   ^     ^  ^ ^  ^  ^  ^ v ^  ^  ^   
  E  S S E  E.  S  E  E   E     E  S E  S  E  S S E  E  E   
-----------------------------|-----------------------------|
--1--1-1----3---3--3--3---3--|--2--2-2--2h-3--3-3-3--3--0--|
--2--2-2----4---4h-5--5p--4--|--2--2-2--2--2--2-2-2--2--2--|
--3--3-3----5---5--5--5---5--|--2--2-2--2--2--2-2-2--2--2--|
--3--3-3----5---5--5--5---5--|--0--0-0--0--0--0-0-0--0--0--|
--1--1-1----3---3--3--3---3--|-----------------------------|


  ^  ^ v   ^   ^  v  ^   ^     ^  ^ ^  ^  ^  ^ v ^  ^  ^   
  E  S E.  E.  S  E  E   E     E  S E  S  E  S S E  E  E   
----------------------------|-----------------------------|
--1--1-1---3---3h-3--3h--3--|--2--2-2--2h-3--3-3-3--3--0--|
--2--2-2---4---4--5--5---4--|--2--2-2--2--2--2-2-2--2--2--|
--3--3-3---5---5--5--5---5--|--2--2-2--2--2--2-2-2--2--2--|
--3--3-3---5---5--5--5---5--|--0--0-0--0--0--0-0-0--0--0--|
--1--1-1---3---3--3--3---3--|-----------------------------|


  ^  ^ v   ^   ^  v  ^   ^     ^  ^     ^              ^           ^            
  E  S E.  E.  S  E  E   E     E  S E.  H        E     E  E  E  E  E  E  E  E   
--1--1-1---3---3--3--3---3--|--1--1-----3--------L--|-----------0--------------|
--1--1-1---3---3h-3--3h--3--|--1--1-----3--------L--|--3--1--3-----------1--0--|
--2--2-2---4---4--5--5---4--|--2--2-----0--------L--|--0-----------0-----------|
--3--3-3---5---5--5--5---5--|--3--3-----0--------L--|--2-----------2--2--------|
--3--3-3---5---5--5--5---5--|--3--3-----2--------L--|--3-----------------------|
--1--1-1---3---3--3--3---3--|--1--1-----3--------L--|--------------3-----------|


  ^           ^              ^                         
  E  E  E  E  E  E  E  E     E  E  E  S S E  E  E  E   
-----------0--------------|-----------0-1-L--3--0--1--|
--3--1--3-----------1--0--|--3--1--3---------------0--|
--0-----------0-----------|--2------------------0-----|
--2-----------2--2--------|--2---------------0--------|
--0-----------------------|--0------------------------|
--------------3-----------|---------------3-----------|


  E  E  E  E  E  E  Q       E  E  E  S S E  E  E  E   
--1--------3--L----------|--3--------5---------------|
--------1-----------1----|--------6----3-L--3--5--6--|
-----2-----2-----0-------|-----5-----5------0--5-----|
--3----------------------|--3------------0-----------|
-------------------------|---------------------------|
--1-----------3----------|---------------------------|


  E  E  E  S S E  E  E  E     E  E  E  S S E  E  E  E   
--3--------5---------------|--3-----3--5---------------|
--------6----3-L--3--5--6--|--------6----3-L--1--3--1--|
-----5-----5------0--5-----|-----5-----5------0--0-----|
--3------------0-----------|--3------------2-----------|
---------------------------|---------------------------|
---------------------------|---------------------------|


  ^                          ^                          
  E  E  E  E  E  E  E  E     E  E  E  S S E  E  E  S S  
--------------------------|--3--------5------------0---|
--0-----------------0--1--|--5----------3-L-----3----3-|
--2-----2--------2--2-----|--5-----5---------2-----2---|
--2--2-----2-----2--------|--5--5-----5---0------------|
--0-----------0-----------|--3-------------------------|
--------------------------|----------------------------|


  ^                 ^  ^                                                    
  E  E  E  E  E  E  E  E     E  E  E  S S E  E  E  S S    E  E  E  E  Q     
--------------------0--0--|--3--------5------------0---|--------------0----|
--1-----------0-----1--1--|--------5----3-L-----3----3-|--1-----3-----1----|
--0-----0--0-----0--0--0--|-----5-----5------2-----2---|--------0----------|
--2--2-----2--0-----2--2--|---------------0------------|-----2-----2-------|
--3-----------------3--3--|--0-------------------------|--3----------------|
--------------------------|----------------------------|-------------------|

  <  
  ^  ^  ^  ^                 ^     ^        ^         
  E  E  E  E  E  E  E  E     E  E  E  E  E  E  E  E   
--3--3--3--3--------------|--------------------------|
--4--4--4--4-----------0--|--0-----------------1--0--|
--3--3--3--3-----0--2-----|--0-----0--------0--------|
--1--1--1--1--------------|--0-----0--------0--0-----|
--------------------------|--2--2--2--2-----2-----2--|
--------------------------|--3-----3-----3--3--------|


  ^                          ^        ^                 
  E  E  E  E  E  E  E  E     E  E  E  S  S E  E  E  E   
--------------------------|----------------------------|
--0-----------------------|--3--------1p-0-------------|
--2-----2-----0-----------|--0-----0--0----0-----------|
--3-----------------3-----|--2--------2----2-----2-----|
--3--3-----3-----3-----3--|--2--2-----2-------2-----2--|
--1-----------------------|--0-------------------------|


  ^        ^                                               
  E  E  E  S  S E  E  E  E     E  E  E  E  E  E  S S S  S  
----------------------------|-----------------------------|
--3--------1p-0-------------|-----0------------------1p-0-|
----------------0--0--2--0--|--2--0----------------0------|
--0-----0--0----------4-----|--------2-----0--------------|
-----0-----0-------0-----0--|--3--------3--------3--------|
--2-------------------------|-----------------3------3----|


  E  E  E  E  E  E  E  E     E  E  E  E  E  E  E  E   
--------------------------|--------------------------|
--0-----------------------|--------------------------|
--------------------2--0--|--2--0--------------0-----|
--------4-----2-----4-----|--------0-----4-----------|
-----0-----0-----0-----0--|-----2-----2-----2-----2--|
--2-----------------------|--3-----------------------|


                             ^     ^        ^         
  E  E  E  E  E  E  E  E     E  E  E  E  E  E  E  E   
--------------------------|--------------------------|
--------------------0--1--|--0-----------------1--0--|
-----------------0--------|--0-----0--------0--------|
-----------3--------3-----|--0-----0--------0--0-----|
-----1--3--------3--------|--2--2--2--2-----2-----2--|
--1-----------1-----------|--3-----3-----3--3--------|


  ^                          ^        ^                 
  E  E  E  E  E  E  E  E     E  E  E  S  S E  E  E  E   
--------------------------|----------------------------|
--0-----------------------|--3--------1p-0-------------|
--2-----2-----0-----------|--0-----0--0----0-----------|
--3-----------------3-----|--2--------2----2-----2-----|
--3--3-----3-----3-----3--|--2--2-----2-------2-----2--|
--1-----------------------|--0-------------------------|


  ^        ^                                               
  E  E  E  S  S E  E  E  E     E  E  E  E  E  E  S S S  S  
----------------------------|-----------------------------|
--3--------1p-0-------------|-----0------------------1p-0-|
----------------0--0--2--0--|--2--0----------------0------|
--0-----0--0----------4-----|--------2-----0--------------|
-----0-----0-------0-----0--|--3--------3--------3--------|
--2-------------------------|-----------------3------3----|


  E  E  E  E  E  E  E  E     E  E  E  E  E  E  E  E   
--------------------------|--------------------------|
--0-----------------------|--------------------------|
--------------------2--0--|--2--0--------------------|
--------4-----2-----4-----|--------2-----4-----4-----|
-----0-----0-----0-----0--|-----2-----2-----2-----2--|
--2-----------------------|--0-----------------------|


  E  E  E  E  E  E  E  E     E  E  E  E  E  E  E  E   
--------------------------|--------------------------|
--------------------------|--------------------------|
--------------------2--0--|--2--0--------------------|
--------2-----3-----3-----|--------2-----4-----4-----|
-----3-----3-----3-----3--|-----2-----2-----2-----2--|
--1-----------------------|--0-----------------------|


                                                        ^                  
  E  E  E  E  E  E  E  E     E  E  E  E  E   E  Q       W                  
--------------------------|---------------------3----|--3----------------||
--------------------------|--------------0h--3-------|--3----------------||
--------------------2--0--|--2--0-----0--------------|--0----------------||
--------2-----3-----3-----|--------0-----------------|--0----------------||
-----3-----3-----3-----3--|-----2--------------------|--2----------------||
--1-----------------------|--3-----------------------|--3----------------||




Duration Legend
---------------
W - whole
H - half
Q - quarter
E - 8th
S - 16th
T - 32nd
X - 64th
. - note dotted
|-n-|  - n-tuplets


Tablature Legend
----------------
L - tied note
x - dead note
g - grace note
(n) - ghost note
> - accentuded note
NH - natural harmonic
AH - artificial harmonic
TH - tapped harmonic
SH - semi harmonic
PH - pitch harmonic
h - hammer on
p - pull off
b - bend
br - bendRelease
pb - preBend
pbr - preBendRelease
brb - bendReleaseBend
\n/ - tremolo bar dip
\n - tremolo bar dive
-/n - tremolo bar Release up
/n\ - tremolo bar inverted dip
/n - tremolo bar return
-\n - tremolo bar Release down
S - shift slide
s - legato slide
/ -  slide into from below or out of upwards
\ -  slide into from above or out of downwards
~ - vibrato
W - wide vibrato
tr - trill
TP - tremolo picking
T - tapping
S - slap
P - pop
< - fade in
^ - brush up
v - brush down
Login or Register to remove this ad.

1 comment on My Song

Beautiful!

5

Beautiful!