Morning Dreamer (Angel Beats!) Guitar Tab

Submitted: Jun 13, 2014 by corntastic (Last updated: Jul 24, 2014)

3.666665
Average: 3.7 (3 votes)
Download | Listen
Game: Angel Beats!
Composer(s): Jun Maeda
Style: Transcription

AutoScroll: Slow | Medium | Fast
Morning Dreamer
Angel Beats!
Jun Maeda
corntastic
13 12 2013


e-------------------------------------------------------------------------
B-----6-----------5-----------5--------------6----------------------------
G--------7-----------5-----------5--------5-------------------------------
D-----------8-----------5-----------5-------------------------------------
A--8-----------------------------------5----------------------------------
E--------------8-----------5---------------------------------------------- x2

______________________________________________________________________________________


e-------------------------------------------------------------------------
B-------------------------------------------------------------------------
G------7--7------7--9--10-----------7--7------7---------------------------
D--10--------10--------------10-10--------10-----10--7--------------------
A-------------------------------------------------------------------------
E-------------------------------------------------------------------------

e-------------------------------------------------------------------------
B-------------------------------------------------------------------------
G------7--7------7--9--10--7-8-10----7----------7-------------------------
D--10--------10-------------------------10--10----------------------------
A-------------------------------------------------------------------------
E-------------------------------------------------------------------------

e-------------------------------------------------------------------------
B-------------------------------------------------------------------------
G------7--7------7--9--10--------7--7---------7---------------------------
D--10--------10--------------10--------10-10-----10--7--------------------
A-------------------------------------------------------------------------
E-------------------------------------------------------------------------

e-------------------------------------------------------------------------
B-------------------------------------------------------------------------
G------7--7---------7--9--10--7-8-10----7----------7----------------------
D--10--------10-10-------------------------10--10-------------------------
A-------------------------------------------------------------------------
E-------------------------------------------------------------------------

e-------------------------------------------------------------------------
B-------------------------------------------------------------------------
G--7-9-10----7----------7-------------------------------------------------
D---------------10--10----------------------------------------------------
A-------------------------------------------------------------------------
E-------------------------------------------------------------------------

______________________________________________________________________________________


e-------------------------------------------------------------------------
B-----8------8----10--8---------------------------------------------------
G--7-----10--------------7s8------------10--8--7-----------7--------------
D-----------------------------------10--------------8--10-----------------
A-------------------------------------------------------------------------
E-------------------------------------------------------------------------


e-------------------------------------------------------------------------
B-----8------8----10--8---------------------------------------------------
G--7-----10--------------7s8--------8--8----6--6--6--8--8-----------------
D-------------------------------------------------------------------------
A-------------------------------------------------------------------------
E-------------------------------------------------------------------------

______________________________________________________________________________________


e-----------------------------------------8-------------------------------
B---------------------------------10--11-----10---------------------------
G--10--10-10--10----10-10--9--10-----------------10--10------10-----------
D----------------10--------------------------------------10---------------
A-------------------------------------------------------------------------
E------------------------------------------------------------------------- x2

e--------------------------7--8--10--7------------------------------------
B--8--8-8-8-8---8-8--7--8---------------8--8-----8------------------------
G-------------7-------------------------------7---------------------------
D-------------------------------------------------------------------------
A-------------------------------------------------------------------------
E-------------------------------------------------------------------------

e-------------------------7--8--10--7-----7-------------------------------
B--8--8-8--8---8-8--7--8---------------8-----7--8-8-----------------------
G------------7------------------------------------------------------------
D-------------------------------------------------------------------------
A-------------------------------------------------------------------------
E-------------------------------------------------------------------------

Repeat and hold the G8 the second time

e-------------------------------------------------------------------------
B--8s6----6s8----10-10----8-8---------------------------------------------
G-------------------------------------------------------------------------
D-------------------------------------------------------------------------
A-------------------------------------------------------------------------
E-------------------------------------------------------------------------

______________________________________________________________________________________


e-----------------------------------------8-------------------------------
B---------------------------------10--11-----10---------------------------
G--10--10--10-10----10-10--9--10-----------------10--10------10-----------
D----------------10--------------------------------------10---------------
A-------------------------------------------------------------------------
E-------------------------------------------------------------------------

e-------------------------------------------8-----------------------------
B-----------------------------------10--11-----10-------------------------
G--10--10-10-10-10----10-10--9--10-----------------10--10------10---------
D------------------10--------------------------------------10-------------
A-------------------------------------------------------------------------
E-------------------------------------------------------------------------

e-------------------------7--8--10--7-------------------------------------
B--8--8-8-8----8-8--7--8---------------8--8-----8-------------------------
G------------7-------------------------------7----------------------------
D-------------------------------------------------------------------------
A-------------------------------------------------------------------------
E-------------------------------------------------------------------------

e--------------------------7-7-8--10--7-----7-----------------------------
B--8--8-8-8-8---8-8--7--8----------------8-----7--8-8---------------------
G-------------7-----------------------------------------------------------
D-------------------------------------------------------------------------
A-------------------------------------------------------------------------
E-------------------------------------------------------------------------
Login or Register to remove this ad.