Little Braver (Angel Beats!) Guitar Tab

Submitted: Jun 13, 2014 by corntastic (Last updated: Jul 24, 2014)

3.666665
Average: 3.7 (3 votes)
Download | Listen
Game: Angel Beats!
Composer(s): Jun Maeda
Style: Transcription

AutoScroll: Slow | Medium | Fast
Little Braver
Angel Beats!
Jun Maeda
corntastic
14 12 2013


e-------------------------------------------------------------------------
B-------------------------7--9--10--9--7----------------------------------
G--9--9---9--9--9---9--9------------------9---6--7---9--------------------
D--------------------------------------------------------7----------------
A-------------------------------------------------------------------------
E-------------------------------------------------------------------------


e-------------------------------------------------------------------------
B-------------------------------------------------------------------------
G--------6----------------7---9---7---6-----------------------------------
D--7--9------7------7--9--------------------------------------------------
A-------------------------------------------------------------------------
E-------------------------------------------------------------------------


e-------------------------------------------------------------------------
B-------------------------------------------------------------------------
G-------------------------------6-------------------------------9---------
D--7--6--7--9---7------7--6--7------7------7--6--7--9---7---9-------------
A-------------------------------------------------------------------------
E-------------------------------------------------------------------------

______________________________________________________________________________________


e------7------------------------------------------------------------------
B-(10)------10----9----10-------------------------------------------------
G-------------------------------------------------------------------------
D-------------------------------------------------------------------------
A-------------------------------------------------------------------------
E-------------------------------------------------------------------------
* play the B10 on the fourth time (second chorus, second run through)

e------9--9-9--9-7----7--10--9--------------------------------------------
B--10---------------------------10-----------7--7-7--7--------------------
G-----------------------------------------9------------7------------------
D-------------------------------------------------------------------------
A-------------------------------------------------------------------------
E-------------------------------------------------------------------------

e-------------9L---9-7----------------------------------------------------
B-----10-9L------------10-------------------------------------------------
G--9----------------------------------------------------------------------
D-------------------------------------------------------------------------
A-------------------------------------------------------------------------
E-------------------------------------------------------------------------

Repeat the above 3 measures once

e------7------------------------------------------------------------------
B--10*------10----9----10L------------------------------------------------
G-------------------------------------------------------------------------
D-------------------------------------------------------------------------
A-------------------------------------------------------------------------
E-------------------------------------------------------------------------

Repeat everything, skip the *B10 the second time
______________________________________________________________________________________

 

e-----------7L------------------------------------------------------------
B-----9---------10-9------------------------------------------------------
G--9-----9------------9----9--7--6-----7----------------------------------
D-----------------------------------9-------------------------------------
A-------------------------------------------------------------------------
E-------------------------------------------------------------------------

e-----------7L---------------------------7--------------------------------
B-----9----------10-9---------10--9--10-----------------------------------
G--9-----9------------9----9----------------------------------------------
D-------------------------------------------------------------------------
A-------------------------------------------------------------------------
E-------------------------------------------------------------------------

e--8--7--8--8L---7--------------------------------------------------------
B------------------10-8----8----------------------------------------------
G-----------------------------9--7------9---------------------------------
D-----------------------------------10------------------------------------
A-------------------------------------------------------------------------
E-------------------------------------------------------------------------

e--8--7--8L---7------------8------8--10--9L-------------------------------
B---------------10-8----8-----10-------------------10---------------------
G-------------------------------------------------------------------------
D-------------------------------------------------------------------------
A-------------------------------------------------------------------------
E-------------------------------------------------------------------------

______________________________________________________________________________________


e--7----------------------------------------------------------------------
B-------10----9----10-----------------------------------------------------
G-------------------------------------------------------------------------
D-------------------------------------------------------------------------
A-------------------------------------------------------------------------
E-------------------------------------------------------------------------

e------9--9-9--9-7----7--10--9--------------------------------------------
B--10---------------------------10-----------7--7-7--7--------------------
G-----------------------------------------9------------7------------------
D-------------------------------------------------------------------------
A-------------------------------------------------------------------------
E-------------------------------------------------------------------------

e-------------9L---9-7----------------------------------------------------
B-----10-9L------------10-------------------------------------------------
G--9----------------------------------------------------------------------
D-------------------------------------------------------------------------
A-------------------------------------------------------------------------
E-------------------------------------------------------------------------

e------7------------------------------------------------------------------
B--10-------10----9----10L------------------------------------------------
G-------------------------------------------------------------------------
D-------------------------------------------------------------------------
A-------------------------------------------------------------------------
E-------------------------------------------------------------------------

e------9--9-9--9-7----7--10--9--------------------------------------------
B--10---------------------------10-----------7--7-7--7--------------------
G-----------------------------------------9------------7------------------
D-------------------------------------------------------------------------
A-------------------------------------------------------------------------
E-------------------------------------------------------------------------

e-------------9L---9-7----------------------------------------------------
B-----10-9L------------10-------------------------------------------------
G--9----------------------------------------------------------------------
D-------------------------------------------------------------------------
A-------------------------------------------------------------------------
E-------------------------------------------------------------------------


e--7----------------------------------------------------------------------
B-------10----9----10-----------------------------------------------------
G-------------------------------------------------------------------------
D-------------------------------------------------------------------------
A-------------------------------------------------------------------------
E-------------------------------------------------------------------------

e------9--9-9--9-7----7--10--10-9--9--------------------------------------
B--10--------------------------------10-----------7--7-7--7---------------
G----------------------------------------------9------------7-------------
D-------------------------------------------------------------------------
A-------------------------------------------------------------------------
E-------------------------------------------------------------------------

e-------------9L---9-7----------------------------------------------------
B-----10-9L------------10-------------------------------------------------
G--9----------------------------------------------------------------------
D-------------------------------------------------------------------------
A-------------------------------------------------------------------------
E-------------------------------------------------------------------------

e--7----------------------------------------------------------------------
B-------10----9----10L-----------s14--15--14-12-10L-----------------------
G-------------------------------------------------------------------------
D-------------------------------------------------------------------------
A-------------------------------------------------------------------------
E-------------------------------------------------------------------------

Login or Register to remove this ad.