Last Song (Angel Beats!) Guitar Tab

Submitted: Sep 22, 2013 by corntastic

3.75
Average: 3.8 (4 votes)
Download | Listen
Game: Angel Beats!
Composer(s): Jun Maeda
Style: Transcription

AutoScroll: Slow | Medium | Fast
Last Song
Angel Beats!
Jun Maeda
corntastic 
20 9 2013

e------------------------------------------------------------------------------------
B--9b11-------11-9-------------------------9b11-------11-9---------------------------
G-----------8-------6g8-8-10-6-8-8-10-6-------------8-------6g8-8-10-6-8-8-10-6-8----
D---------------------------------------8L-------------------------------------------
A------------------------------------------------------------------------------------
E------------------------------------------------------------------------------------

__________________________________________________________________________________________________________

e-------------------------------------------------------------------------
B-------------------------------------------------------------------------
G--6-6-6-6---6-------------6-6--6-----6-----------------------------------
D---------------9-8-6-8------------------9-8-6-8--------------------------
A-------------------------------------------------------------------------
E-------------------------------------------------------------------------


e-------------------------------------------------------------------------
B----------------------------------------9-9------------------------------
G--10-8-10-8-6--6------6------10-8-10-8------10--8-8----------------------
D-----------------10-8---6------------------------------------------------
A-------------------------------------------------------------------------
E-------------------------------------------------------------------------


e-----9---------------------9---------------------------------------------
B--11---12-11-9-12-11----11---12-11-9-11----------------------------------
G-------------------------------------------------------------------------
D-------------------------------------------------------------------------
A-------------------------------------------------------------------------
E-------------------------------------------------------------------------


e-------------------------------------------------------------------------
B----11-9-----------------------------------------------------------------
G--8------6-8-8-10-6-6-8-8-8-10-6-8---------------------------------------
D-------------------------------------------------------------------------
A-------------------------------------------------------------------------
E-------------------------------------------------------------------------


e---------------------------------------------------------7-6--6--8---8-9--
B--9-9-11--9--12--11--12b14----9-11--9--12--11-----------------------------
G-----------------------------------------------11----6-8------------------
D--------------------------------------------------------------------------
A--------------------------------------------------------------------------
E--------------------------------------------------------------------------


e---------------------------------------------------------------7-6-------------------------------
B--9-9-11--9--12--11--12b14----9-9-11--9-9-12--11--9----------------9--7-9------11--9-------------
G-----------------------------------------------------11----6-8--------------11----------11-10-8--
D-------------------------------------------------------------------------------------------------
A-------------------------------------------------------------------------------------------------
E-------------------------------------------------------------------------------------------------

__________________________________________________________________________________________________________

e--------------------------------9-------11-9----------------------------------9-------13-11--
B--------9-------11-9-11-12-9-12---11-12---------------9-------11-9-11-12-9-12---11-12--------
G--10-11---10-11---------------------------------10-11---10-11--------------------------------
D---------------------------------------------------------------------------------------------
A---------------------------------------------------------------------------------------------
E---------------------------------------------------------------------------------------------


e-----------9--------------------------------------------------------------
B---------------------------------11--9----------------------12--11--------
G--8---11--------8-10-11-10--------------11---11-10-11-10------------------
D---------------------------11----------------------------11---------------
A--------------------------------------------------------------------------
E--------------------------------------------------------------------------

e-----------9-----------------------------------------------------------------------------------------------
B---------------------------------11--9-------------------12-12-11-9------------------9---------11-9-12-11--
G--8---11--------8-10-11-10--------------11---10-11-10---------------11---8------8-11-----10-11-------------
D---------------------------11-------------------------11---------------------11----------------------------
A-----------------------------------------------------------------------------------------------------------
E-----------------------------------------------------------------------------------------------------------


e------------------------------------------------------------------------------------
B--9b11-------11-9-------------------------9b11-------11-9---------------------------
G-----------8-------6g8-8-10-6-8-8-10-6-------------8-------6g8-8-10-6-8-8-10-6------
D---------------------------------------8L--------------------------------------8----
A------------------------------------------------------------------------------------
E------------------------------------------------------------------------------------

e-------------------------------------------------------------------
B-------------------------9b11-------11-9---------------------------
G--6g8-8-10-6-8-8-10-6-------------8-------6g8-8-10-6-8-8-10-6-8----
D----------------------8L-------------------------------------------
A-------------------------------------------------------------------
E-------------------------------------------------------------------
Login or Register to remove this ad.