Highest Life (Angel Beats!) Guitar Tab

Submitted: Sep 22, 2013 by corntastic

2.333335
Average: 2.3 (3 votes)
Download | Listen
Game: Angel Beats!
Composer(s): Jun Maeda
Style: Transcription

AutoScroll: Slow | Medium | Fast
Highest Life
Angel Beats!
Jun Maeda
corntastic
20 9 2013

Guitar intro

e-------------------------------------------------------------------------------
B--s11----11-12-11--9-------------------------s11----11-12-11--9----------------
G----------------------11---------------11------------------------11------------
D--------------------------11---9---11--------------------------------11---9-8--
A-------------------------------------------------------------------------------
E-------------------------------------------------------------------------------
____________________________________________________________________________________

Verses

e--------------------------------------------------------------------
B--11-11-----14-12-11-9-------------9--------------------------------
G--------11-------------8-8--10-11-----11----------------------------
D------------------------------------------11------------------------
A--------------------------------------------------------------------
E--------------------------------------------------------------------

e--------------------------------------------------------------------------
B-11-11-----14-12-11-9-------------9------------9-11----11--9------9---11--
G-------11-------------8-8--10-11-----11--11-11----------------11----------
D--------------------------------------------------------------------------
A--------------------------------------------------------------------------
E--------------------------------------------------------------------------

____________________________________________________________________________________

Chorus

e------------------------------------------------------------------------------------
B----11--12-14-12-11--9-11-----11--12-14-12-11----9----9-----------------------------
G-11------------------------11-----------------11---------11-10-11---------------11--
D------------------------------------------------------------------11--11-9-8--9-----
A------------------------------------------------------------------------------------
E------------------------------------------------------------------------------------

e----------------------------------------------------------------------------------
B----11--12-14-12-11--9-11-----11--12-14-12-11-9----9------------------------------
G-11------------------------11------------------------11-10-11---------------11----
D--------------------------------------------------------------11--11-9-8--9-------
A----------------------------------------------------------------------------------
E----------------------------------------------------------------------------------

e---------------------------------------------------------------------
B-9-------------------------------------------------------------------
G---11-10-11---------------11-----------------------------------------
D------------11--11-9-8--9--------------------------------------------
A---------------------------------------------------------------------
E---------------------------------------------------------------------

Play this and the verses twice
____________________________________________________________________________________

Interludy + chorus

e-----------------------------------------------------------------------------------
B-------------------11-9--------------------------------------11-9----------11--11--
G----10-11-10----11-------11--10--11-----------10-11-10----11-------11--10----------
D-11----------11----------------------11----11----------11--------------------------
A-----------------------------------------------------------------------------------
E-----------------------------------------------------------------------------------

e---------11-9-------9---------------------------------------------------------------
B----11-9------11-12------------9-11--11-------11-9------9-11-11L----b14r11-9--------
G-11--------------------11-8-11-------------11------8--------------------------------
D------------------------------------------------------------------------------------
A------------------------------------------------------------------------------------
E------------------------------------------------------------------------------------

e------------------------------------------------------------------------------------
B----11--12-14-12-11--9-11-----11--12-14-12-11----9----9-----------------------------
G-11------------------------11-----------------11---------11-10-11---------------11--
D------------------------------------------------------------------11--11-9-8--9-----
A------------------------------------------------------------------------------------
E------------------------------------------------------------------------------------

e-------------------------------------------------------------------------------------
B----11-12-14-12-11--9-11-------11-12-14-12-11--9----9--------------------------------
G-11-------------------------11-------------------------11-10-11----------------11----
D----------------------------------------------------------------11--11-9-8--9--------
A-------------------------------------------------------------------------------------
E-------------------------------------------------------------------------------------

____________________________________________________________________________________

Second interludy + Chorus

e-------------------------------------------------------------------------
B-9-----------9-----------------------------------------------------------
G----11-10-11-------------------------------------------------------------
D-------------------------------------------------------------------------
A-------------------------------------------------------------------------
E-------------------------------------------------------------------------

e------------------------------------------------------------------------------------
B----11--12-14-12-11--9-11-----11--12-14-12-11----9----9-----------------------------
G-11------------------------11-----------------11---------11-10-11---------------11--
D------------------------------------------------------------------11--11-9-8--9-----
A------------------------------------------------------------------------------------
E------------------------------------------------------------------------------------

e----------------------------------------------11-------------------------------------
B----11--12-14-12-11--9-11-----11--12-14-12-11----9----9------------------------------
G-11------------------------11---------------------------11-10-11---------------11----
D-----------------------------------------------------------------11--11-9-8--9-------
A-------------------------------------------------------------------------------------
E-------------------------------------------------------------------------------------

e-------------------------------------------------------------------------------
B-9------------------------------9----------------------------------------------
G---11-10-11---------------11---------11-10-11--------------------11L---b13r11--
D------------11--11-9-8--9----------------------11--11-9-8------8---------------
A-------------------------------------------------------------------------------
E-------------------------------------------------------------------------------

____________________________________________________________________________________

Lalala (or guitar)

e-----------------------------------------------------------------------------------
B-11----11-12-11--9------------------------11----11-12-11--9------------------------
G--------------------11--------------11-----------------------11--------------------
D------------------------11---9--11-------------------------------11--9-8-----------
A-----------------------------------------------------------------------------------
E----------------------------------------------------------------------------------- x2

e-----------------------------------------------------------------------------------
B-13----13-14-13--11-------------------------13----13-14-13--11---------------------
G---------------------13---------------13------------------------13-----------------
D-------------------------13---11--13--------------------------------13--11-10------
A-----------------------------------------------------------------------------------
E----------------------------------------------------------------------------------- x2

e--------------------------------------------------------------------11-------------
B-13----13-14-13--11-------------------------13----13-14-13--11---------------------
G---------------------13---------------13------------------------13------13-13------
D-------------------------13---11--13-----------------------------------------------
A-----------------------------------------------------------------------------------
E-----------------------------------------------------------------------------------

e-----------------------------------------------------------------------------------
B-13----13-14-13--11-------------------------13----13-14-13--11---------------------
G---------------------13---------------13------------------------13-----------------
D-------------------------13---11--13--------------------------------13--11-10------
A-----------------------------------------------------------------------------------
E----------------------------------------------------------------------------------- x ‡
Login or Register to remove this ad.