God Bless You (Angel Beats!) Guitar Tab

Submitted: Aug 31, 2013 by corntastic

3
Average: 3 (2 votes)
Download | Listen
Game: Angel Beats!
Composer(s): Jun Maeda
Style: Transcription

AutoScroll: Slow | Medium | Fast
God Bless you
Angel Beats!
Jun Maeda
corntastic
31 8 2013

Part A

e------------------------------------------------------------------------
B-----------------7---------------------------------------7--9-9---------
G---9--9--9-9--9-----9--9--6--6--9-9--------9--9--9-9--9-----------------
D------------------------------------------------------------------------
A------------------------------------------------------------------------
E------------------------------------------------------------------------


e------------------------------------------------------------------------
B---9--12-------9--7-----------------s12--------9--7---------------------
G----------9----------9-------------------9-----------9--8s9-------------
D--------------------------9-9-------------------------------------------
A------------------------------------------------------------------------
E------------------------------------------------------------------------


_______________________________________________________________________________

Part B

e-------------------------------------------------------------------------
B---------7-7------------------------------7-7---------------9-10-12------
G---6--8------9----------------------6--8------9----8--9--8---------------
D------------------9--9----9--9-9-----------------------------------------
A-------------------------------------------------------------------------
E-------------------------------------------------------------------------


e-------------------------------------------------------------------------
B---------7-7--------------------------7----------------------------------
G---6--8------9----------------------8----9----6----------6---------------
D------------------9--9----9--9-9-----------------9----9------------------
A-------------------------------------------------------------------------
E-------------------------------------------------------------------------


_______________________________________________________________________________

Part C

e-------------------------------------------------------------------------
B------------10--9-----------------11--10---------------------------------
G---11--9----------9----9-11-10-----------10--------10-------------10-----
D-----------------------------------------------10------------8-10--------
A-------------------------------------------------------------------------
E-------------------------------------------------------------------------


e-------------------------------------------------------------------------
B---13--------11--10-------------------12--11-----------------------------
G-------10-----------10----10-12-11-----------11--------11----------------
D---------------------------------------------------11--------------------
A-------------------------------------------------------------------------
E-------------------------------------------------------------------------


_______________________________________________________________________________

Part D

e--------------------------------------------------------------------------------
B---------------7----7-----------------------------------------------------------
G---6--8--9--9--------------------9----8----6---------6--6--6--6--------------6--
D-----------------------9-9----9-----------------9----------------9--9--9--9-----
A--------------------------------------------------------------------------------
E--------------------------------------------------------------------------------


e-------------------------------------------------------------------------
B---7--7--7---------------------------------------------------------------
G----------------------9----8----6---------6--6--6--6--------------6------
D------------7s9----9-----------------9----------------9--9--9--9---------
A-------------------------------------------------------------------------
E-------------------------------------------------------------------------


_______________________________________________________________________________

Part E

e-------------------------------------------------------------------------
B-------------------------------------------------------------------------
G---9--9--9-------8--9-------8--9----9--9--9------------------------------
D-----------9--9----------9------------------9----9--9--------------------
A-------------------------------------------------------------------------
E-------------------------------------------------------------------------


e-------------------------------------------------------------------------
B-------------------------------7-----------------------------------------
G---9--9--9-------8--9----6--8-------9--9--9----------6-------------------
D-----------9--9-----------------------------9--9--9----------------------
A-------------------------------------------------------------------------
E-------------------------------------------------------------------------


_______________________________________________________________________________

Part F

e-------------------------------------------------------------------------
B---9-9-9--9--7--7-9--7--9s12----9--9--9-7--7--9--7-----------------------
G----------------------------------------------------9--------------------
D-------------------------------------------------------------------------
A-------------------------------------------------------------------------
E-------------------------------------------------------------------------


e-------------------------------------------------------------------------
B---9-9-9--9--7--7-9--7--9s12----9----------------------------------------
G----------------------------------6----9--9--9----------6----------------
D-----------------------------------------------9--9--9-------------------
A-------------------------------------------------------------------------
E-------------------------------------------------------------------------


_______________________________________________________________________________

Part C (again)
e-------------------------------------------------------------------------
B------------10--9-----------------11--10---------------------------------
G---11--9----------9----9-11-10-----------10--------10-------------10-----
D-----------------------------------------------10------------8-10--------
A-------------------------------------------------------------------------
E-------------------------------------------------------------------------


e-------------------------------------------------------------------------
B---13--------11--10-------------------12--11-----------------------------
G-------10-----------10----10-12-11-----------11--------11----------------
D---------------------------------------------------11--------------------
A-------------------------------------------------------------------------
E-------------------------------------------------------------------------


_______________________________________________________________________________

Part G

e-------------------------------------------------------------------------
B---14--------12--11-------------------13-12------------------------------
G-------11-----------11----11-13-12----------12-------12--------------12--
D--------------------------------------------------12-----------10-12-----
A-------------------------------------------------------------------------
E-------------------------------------------------------------------------


e-------------------------------------------------------------------------
B---15--------13--12-------------------13b14r13---------------------------
G-------12-----------12----12-14-13-------------13-------13--------12-----
D-----------------------------------------------------13------------------
A-------------------------------------------------------------------------
E-------------------------------------------------------------------------

And continue up!

Play order:
Ax2
Bx1
Cx1
Dx1

Ax2
Bx1
Cx1
Dx1

Ex2
Fx2
Cx1
Gx1
Login or Register to remove this ad.