Day Game (Angel Beats!) Guitar Tab

Submitted: Sep 25, 2013 by corntastic

4
Average: 4 (4 votes)
Download | Listen
Game: Angel Beats!
Composer(s): Jun Maeda
Style: Transcription

AutoScroll: Slow | Medium | Fast
Day Game
Angel Beats!
Jun Maeda
corntastic
22 9 2013

___________________________________________________________________________________________________________


e-------------------------------------------------------------------------
B--------7-7--8--7-----7----------7--8--7---------------------------------
G--7-9-9------------9-------7-9-9----------7--9---------------------------
D-------------------------------------------------------------------------
A-------------------------------------------------------------------------
E-------------------------------------------------------------------------

e-------------------------------------------------------------------------
B--------7-7--8--7-----7----------7-7--9--7-----10------------------------
G--7-9-9------------9-------7-9-9------------9------6-6-------------------
D-------------------------------------------------------------------------
A-------------------------------------------------------------------------
E-------------------------------------------------------------------------

e-------------------------------------------------------------------------
B------7-7--8--7-----7--------7-7--8--7-----------------------------------
G--7-9------------9-------7-9------------7--9-----------------------------
D-------------------------------------------------------------------------
A-------------------------------------------------------------------------
E-------------------------------------------------------------------------

e-------------------------------------------------------------------------
B--------7-7--8--7-----10-------------------------------------------------
G--7-9-9------------9-----7-7--6---6----6-7-9--7-6-7--7-6--7-7------------
D--------------------------------7---9------------------------------------
A-------------------------------------------------------------------------
E-------------------------------------------------------------------------


e------------------------------------------8-----------------------------------------------
B--------------8--------------8-------10-8---11-10-11--10--8--10-10------------10-8--------
G--10--9--10------10-9-9----9---10---------------------------------------9-10-------9-10---
D-------------(10)-------10--------10---------------------------------10-------------------
A------------------------------------------------------------------------------------------
E------------------------------------------------------------------------------------------

e-----------------------------------------10----------------------------------------------------------
B--------------10-----------------12---------13-12-13--12--10--12-12----13b15~---13b15-13-12-10-(8)---
G--12--11--12-----12-11-11-12--12------12-------------------------------------------------------------
D-------------(12)------------------------------------------------------------------------------------
A-----------------------------------------------------------------------------------------------------
E-----------------------------------------------------------------------------------------------------

only play that last 8 the first time

___________________________________________________________________________________________________________x2


e-------------------------------------------------------------------------
B--10.-10.-(10.-10.)--10.-10.-(10.-10.)-----------------------------------
G----------------------------------------12--10--9--10--------------------
D-------------------------------------------------------------------------
A-------------------------------------------------------------------------
E-------------------------------------------------------------------------


e-------------------------------------------------------------------------
B--10.--(10.)--10.-10.-(10.-10.)--------13----11-10-----------------------
G---------------------------------12--------------------------------------
D-------------------------------------------------------------------------
A-------------------------------------------------------------------------
E-------------------------------------------------------------------------


e-------------------------------------------------------------------------
B--11.-11.-(11.-11.)-11.-11.-(11.-11.)------------------------------------
G---------------------------------------13--11--10--11--------------------
D-------------------------------------------------------------------------
A-------------------------------------------------------------------------
E-------------------------------------------------------------------------

e---------------------------------------------------------------------------
B--11.-11.-(11.-11.)-11.-11.-(11.-11.)--------14----12-10----10------13b14--
G---------------------------------------13----------------13----11----------
D---------------------------------------------------------------------------
A---------------------------------------------------------------------------
E---------------------------------------------------------------------------

__________________________________________________________________________________________________________


e------------------------------------------8-------------------------------------------------
B--------------8--------------8-------10-8---11-10-11--10--8--10-10--------------10-8--------
G--10--9--10------10-9-9----9---10---------------------------------------9-10---------9-10---
D-------------(10)-------10--------10---------------------------------10------10-------------
A--------------------------------------------------------------------------------------------
E--------------------------------------------------------------------------------------------

e----------------------------------------10----------------------------------------------12----------
B--------------10-----------------12--------13-12-13--12--10--12-12----13b15~---15-13-12----15L------
G--12--11--12-----12-11-11-12--12-----12-------------------------------------------------------------
D-------------(12)-----------------------------------------------------------------------------------
A----------------------------------------------------------------------------------------------------
E----------------------------------------------------------------------------------------------------

e-----------------------------------------------10-------------------------------------------------------
B--------------10----------------10-------12-------13-12-13--12--10--12-12----------------12-10----------
G--12--11--12-----12-11-11----11----12-12----12----------------------------------11-12----------11-12----
D-------------(12)---------12----------------------------------------------12-12-------12----------------
A--------------------------------------------------------------------------------------------------------
E--------------------------------------------------------------------------------------------------------

e-----------------------------------------------10-------------------------------------------------------
B--------------10----------------10-------12-------13-12-13--12--10--12-12----13b15~---15-13-12-10-------
G--12--11--12-----12-11-11----11----12-12----12----------------------------------------------------------
D-------------(12)---------12----------------------------------------------------------------------------
A--------------------------------------------------------------------------------------------------------
E--------------------------------------------------------------------------------------------------------

___________________________________________________________________________________________________________


e-------------------------------------------------------------------------
B--10.-10.-(10.-10.)--10.-10.-(10.-10.)-----------------------------------
G----------------------------------------12--10--9--10--------------------
D-------------------------------------------------------------------------
A-------------------------------------------------------------------------
E-------------------------------------------------------------------------


e-------------------------------------------------------------------------
B--10.-10.-(10.-10.)--10.-10.-(10.-10.)--------13----11-10----------------
G----------------------------------------12-------------------------------
D-------------------------------------------------------------------------
A-------------------------------------------------------------------------
E-------------------------------------------------------------------------


e-------------------------------------------------------------------------
B--11.-11.-(11.-11.)-11.-11.-(11.-11.)------------------------------------
G---------------------------------------13--11--10--11--------------------
D-------------------------------------------------------------------------
A-------------------------------------------------------------------------
E-------------------------------------------------------------------------

e---------------------------------------------------------------------------
B--11.-11.-(11.-11.)-11.-11.-(11.-11.)--------14----12-10----10------13b14--
G---------------------------------------13----------------13----11----------
D---------------------------------------------------------------------------
A---------------------------------------------------------------------------
E---------------------------------------------------------------------------
Login or Register to remove this ad.