Crow Song (Angel Beats!) Guitar Tab

Submitted: Sep 26, 2013 by corntastic

3
Average: 3 (4 votes)
Download | Listen
Game: Angel Beats!
Composer(s): Jun Maeda
Style: Transcription

AutoScroll: Slow | Medium | Fast
Crow Song
Angel Beats!
Jun Maeda
corntastic
25 9 13

Guitar intro

e----------------------------------------------------------------------------
B----------------------------------------------------------------------------
G--8-8--8-8-8--8-10-10--10-10-10--10-12-12--12-12-12--12-12s10-10s8-8s7-7s8--
D----------------------------------------------------------------------------
A--6-6--6-6-6--6-8--8---8--8--8---8--10-10--10-10-10--10-10s8---8s6-6s5-5s6--
E----------------------------------------------------------------------------

e---------------------------------------------------------------------------------
B---------------------------------------------------------------------------------
G--8-8--8-8-8--8-10-10--10-10-10--10-12-12--12-12-12--12--12-13-13-12-12-10-10-8--
D---------------------------------------------------------------------------------
A--6-6--6-6-6--6-8--8---8--8--8---8--10-10--10-10-10--10--10-11-11-10-10-8--8--6--
E---------------------------------------------------------------------------------

e-------------------------------------------------------------------------
B-------------------------------------------------------------------------
G--8-8--8-8-8--8-7-7--7-8-8-8-8-10-10--10-10-10--12-12-12--10-10-10-------
D-------------------------------------------------------------------------
A--6-6--6-6-6--6-5-5--5-6-6-6-6-8--8---8--8--8---10-10-10--8--8--8--------
E-------------------------------------------------------------------------

e----------------------------------------------------------------------------
B----------------------------------------------------------------------------
G--8-8--8-8-8--8-10-10--10-10-10--10-12-12--12-12-12--12-12s10-10s8-8s7-7s8--
D----------------------------------------------------------------------------
A--6-6--6-6-6--6-8--8---8--8--8---8--10-10--10-10-10--10-10s8---8s6-6s5-5s6--
E----------------------------------------------------------------------------



e-------------------------------------------------------------------------
B--8-11-8-8----8-8--8-----------------8---------------------11------------
G-----------10---------10-8-7-8----10---10-8-7--7--8--8-7-8---------------
D-------------------------------------------------------------------------
A-------------------------------------------------------------------------
E-------------------------------------------------------------------------

e-------------------------------------------------------------------------
B--11--11-------11--11-------8------------9--8----------------------------
G----------8------------7-------10--8--7--------10--8---------------------
D-------------------------------------------------------------------------
A-------------------------------------------------------------------------
E-------------------------------------------------------------------------

e------------------------------------------------------------------------------
B--11-------9-8-------11-------9-8-------11-------9-8-------11-------9-8-9-11--
G------8-8------10-8------8-8------10-8------8--------10-8------8--------------
D------------------------------------------------------------------------------
A------------------------------------------------------------------------------
E------------------------------------------------------------------------------

e-----------------------------------------------------------------------------------
B--12-------10-9-------12-------10-9-------12-------10-9-------12-------10-9-10-12--
G------9---------11-9------9---------11-9------9---------11-9------9----------------
D-----------------------------------------------------------------------------------
A-----------------------------------------------------------------------------------
E-----------------------------------------------------------------------------------

__________________________________________________________________________________________


e-----8-------------------------------------------------------------------
B--11---9-11-8-9----8-----------------------------------------------------
G----------------10---8-10-7-8----7---------------------------------------
D------------------------------10---8-------------------------------------
A-------------------------------------------------------------------------
E-------------------------------------------------------------------------

Play this ^, then repeat from the beginning and skip this ^
__________________________________________________________________________________________

e--8-8-10-8-10.------------------------8--8----8-10-----8----11-10--------
B-----------------8-9--8-9-8-------11-------11-------11---11--------------
G----------------------------10-8-----------------------------------------
D-------------------------------------------------------------------------
A-------------------------------------------------------------------------
E-------------------------------------------------------------------------

e--8-8-10-8-10-8-----------------------8----8----8-10--8--10.-------------
B-----------------8-9--8-9-8-------11----11---11--------------------------
G----------------------------10-8-----------------------------------------
D-------------------------------------------------------------------------
A-------------------------------------------------------------------------
E-------------------------------------------------------------------------


e--11-------------------8-10.--11----8----10b10.5r10----------------------
B--------pb13----r11------------------------------------------------------
G-------------------------------------------------------------------------
D-------------------------------------------------------------------------
A-------------------------------------------------------------------------
E-------------------------------------------------------------------------
Login or Register to remove this ad.