Brave Song (Angel Beats!) Guitar Tab

Submitted: Jul 29, 2016 by MechaKrauser

5
Average: 5 (3 votes)
Download | Listen
Game: Angel Beats!
Composer(s): Jun Maeda
Style: Arrangement, Fingerstyle

AutoScroll: Slow | Medium | Fast
Brave Song
from Angel Beats!
performed by Aoi Tada
music and lyrics by Jun Maeda
tab by MechaKrauser

Standard tuning, capo on 3
2/4 time, single bar of 1/4 at end, 63bpm

*Thmb = Fret bass note with thumb over top of neck
*M = Fret note with Middle finger


   [Verse 1]
   
     ^                                                                                  
     E  S S E  S S    S E  S S S E     E  S S S E  S    S E  S S S E     E  S S S E  S  
E||----------------|----------------|--0------0-1--0-|----------------|--0------0-1--0-|
B||--1------3--1-3-|----1------1-3--|----------------|----1--------3--|----------------|
G||-------0--------|-------0-L------|-------0--------|-----------0----|-------0--------|
D||-----2----------|----------------|-----2----------|-------2-L------|-----2----------|
A||--3-------------|--2-------------|--0-------------|----------------|----------------|
E||----------------|----------------|----------------|--1-------------|--0-------------|


                   ^                              ^                                
  S E  S S S E     Q    S E  S    S E  S E.  S    E  S S S S S S    S E  S E   E   
----------------|--0----0-1--0-|---------------|-----------------|----------------|
----1------1-3--|--1-----------|----1----------|--1------3---1-3-|----1----1h--3--|
-------0-L------|--0-----------|-------0-L-----|--0----0---------|----0----0------|
----------------|--2-----------|---------------|--2--2-----2-----|-------2--------|
----------------|--------------|--3----3-L-----|--3--------------|--2-------------|
--3-------------|--------------|---------------|-----------------|----------------|


  ^                            ^     ^                            ^     ^             
  E  S S S S S S    S E  S S S E     E  S S S S S S    S E  S S S E     S S S S Q     
--0------0-1---0-|----------------|--0------0-1---0-|----------------|--------3-L----|
-----------------|----1--------3--|-----------------|----3------1-3--|--1---1--------|
--2----0-----0---|----0------0----|--0----0-----0---|----0--------0--|----0----------|
-----2-----------|-------2-L---2--|-----2-----------|-------2-L------|---------------|
--0--------------|----------------|-----------------|----------------|--3------------|
-----------------|--1-------------|--0--------------|--3-------------|---------------|


 [Pre-Chorus]
																	
  ^            ^    *Thmb          ^                                   ^            ^  
  E.  S S S  S S    E.  S E  E     E  S S E  E     S S S S S S  S S    E.  S S S  S S  
-----------------|--------------|---------------|------3------------|-----------------|
---------------1-|--------------|---------------|--------1-L-0h-1---|---------------1-|
--0------------0-|-----------2--|--0----0-L--0--|----0------------0-|--0------------0-|
--2---2---2h-3---|--------3--3--|--0----0-L--0--|-------------------|--2---2---2h-3---|
--0-----0--------|------3-------|---------------|--3----------------|--0-----0--------|
-----------------|--1-----------|--3--3---------|-------------------|-----------------|


  *Thmb    ^                                                                   
  E.  S E  E     Q    E  E     S S S S S S  S S    S S S S Q       Q    E  E   
--------------|-------------|------3------------|--------3-L----|--L----L-----|
--------------|-------3--1--|--------1-L-0h-1---|------3--------|-------------|
-----------2--|--0-------0--|----0------------0-|---------------|----------0--|
--------3--3--|--0----0-----|-------------------|----0----------|-------------|
------3-3-----|-------------|--3----------------|---------------|-------------|
--1-----------|--3----------|-------------------|--3------------|-------------|


 [Chorus]
 
  ^                                                                        ^       
  E.  S E.  S    E.  S S S S S    E  S S S E  S    E  S S S S E     E  S S E  S S  
--3-----------|--0-----------0-|--1--3-1---0----|----------------|--0---------0---|
--1-----3-----|------------3---|--1--------1--1-|-----0-1---3-L--|--1------3----1-|
--------0-----|--2-------------|--------------0-|-------0---0-L--|-------0-2------|
------2-----2-|----------2-----|---------2------|---------2------|-----2----------|
--0-----------|--0---0-L-------|----------------|----------------|--0-------------|
--------------|----------------|--1-------------|--3-------------|----------------|


               ^                                      ^      ^             ^          v  
  S E  S S S S S    E.  S S  E  S    S E  S S S E     E  S S E    S S    S E  S S S S S  
-----------------|----------------|----------------|--5------7--7g8---|-----------0-----|
-----------------|----------------|----0--1---3-L--|--5------5------8-|----6--------3-1-|
----0--------0-0-|------0-2p-0--2-|----0--0---2-L--|-------5----------|---------------0-|
----2------3---3-|--------3-----3-|---------0------|-----7------------|----7------------|
--0----0-L-------|----------------|----------------|--0---------------|--0----0-L-------|
-----------------|--1-------------|--3-------------|------------------|-----------------|


  *Thmb             *M                                                    ^          
  E.  S S  S S S    S S S S S S E     E  S S E  E     E  S S S E  S    E  E  S E  S  
-----------------|-----------------|------------3--|--1-------------|---------------|
------1-1p-0---1-|------0-1---3-L--|--4----6-L--1--|-----3----------|-----1--L------|
-------------0---|----0---0---2-L--|--5------------|--3----3---2--0-|-----0--L------|
--------2--------|----------3------|---------------|--------------3-|---------------|
-----------------|-----------------|-----6---------|--1------1------|-------------3-|
--1--------------|--3--------------|--4------------|----------------|--1-------1----|


  ^                               ^                    ^                             
  E.  S E  S S    E  S S E  E     E  S S S S S S    E  E  S E  S    S S S S S S S S  
---------------|---------------|--6--------------|---------------|----------0-------|
-------------3-|--4----6-L--8--|--6--------------|---------------|------------------|
---------------|--5---------5--|-----7-------0---|-----5--L------|------5-----5-----|
--3------------|---------------|-------8---7---3-|-----3--L----3-|----5---5-----5---|
--3--------3---|-----6---------|-----------------|--3-------3----|--3-------------3-|
--1---1-1------|--4------------|--6------6-------|---------------|------------------|


                                                                    [Verse 2]
																	
                  ^                 ^                 ^               ^              
  S S S S Q       S S S S S E  S    S S S S S E  S    S S S S Q       E  S S E  S S  
--------3-L----|--------8-L----3-|------0--------3-|------0--------|----------------|
---------------|--6--------------|--6--------------|--6------------|--1------3--1-3-|
------5--------|------5-----5----|-----------------|--------5-L----|-------0--------|
----5----------|----5------------|----5-------5----|----5---5-L----|-----2----------|
--3------------|--3--------------|--3-----3-L------|--3------------|--3-------------|
---------------|-----------------|-----------------|---------------|----------------|


  S E  S E   E     E  S S S E  S    S E  S S S E     E  S S S E  S    S E  S S S E   
----------------|--0------0-1--0-|----------------|--0------0-1--0-|----------------|
----1----1h--3--|----------------|----1--------3--|----------------|----1--------1--|
-------0--------|-------0--------|-----------0----|-------0--------|-----------0----|
----------------|-----2----------|-------2-L------|-----2----------|-------2-L------|
--2-------------|--0-------------|----------------|----------------|----------------|
----------------|----------------|--1-------------|--0-------------|--3-------------|


  ^                   ^           ^                                  ^               
  E.  S S E  S    S S E  E.  S    E  S S S S S S    S E  S E   E     E  S S S S S S  
--0-----0-1--0-|---------------|-----------------|----------------|--0------0-1---0-|
--1------------|----1-1--L-----|--1------3---1-3-|----1----1h--3--|-----------------|
--0------------|---------------|--0----0---------|----0----0------|--2----0-----0---|
--2------------|---------------|--2--2-----2-----|-------2--------|-----2-----------|
--3---3--------|--3---3--L-----|--3--------------|--2-------------|--0--------------|
---------------|---------------|-----------------|----------------|-----------------|


                                                                    [Pre-Chorus 2]
																	
             ^     ^                      ^          ^                 ^            ^  
  S E  S S S E     E  S S S S S S    S E  S E  E     S S S S S E  S    E.  S S S  S S  
----------------|--0------0-1---0-|---------------|--------3-L------|-----------------|
----1--------3--|-----------------|----3--1-L--3--|--1---1----------|---------------1-|
----0------0----|--0----0-----0---|----0-------0--|----0----------0-|--0------------0-|
-------2-L---2--|-----2-----------|-------2-L-----|-----------------|--2---2---2h-3---|
----------------|-----------------|---------------|--3---------3----|--0-----0--------|
--1-------------|--0--------------|--3------------|-----------------|-----------------|


  *Thmb          ^                                 ^            ^    *Thmb    ^   
  E.  S E  E     E.  S E  E     S S S S S S S S    E.  S S S  S S    E.  S E  E   
--------------|--------------|--------1-L-0-----|-----------------|--------------|
--------------|--------------|------1-------1---|---------------1-|--------------|
-----------2--|--0-----0--0--|----0-----------0-|--0------------0-|-----------2--|
--------3-----|--0-----0--0--|------------------|--2---2---2h-3---|--------3--3--|
------3----3--|--------------|--3---------------|--0-----0--------|------3-3-----|
--1-----------|--3---3-------|------------------|-----------------|--1-----------|


                                                                [Chorus 2]

                                                                   ^            
  E.  S E  E     S S S S S S  S S    S S S S S E  S    H           E.  S E.  S  
--------------|--------3-L--------|--------3-L------|-----------|--3-----------|
--------3--1--|------1-----3p-1---|------3-----1----|-----------|--1-----3-----|
--0--------0--|----0------------0-|---------------0-|--L--------|--------0-----|
--0-----0-----|-------------------|----0------------|-----------|------2-----2-|
--------------|--3----------------|-----------------|-----------|--0-----------|
--3---3-------|-------------------|--3--------------|-----------|--------------|


                                                            ^                      ^  
  E.  S S S S S    E  S S S E  S    E  S S S S E     E  S S E  S S    S E  S S S S S  
--0-----------0-|--1--3-1---0----|----------------|--0---------0---|-----------------|
------------3---|--1--------1--1-|-----0-1---3-L--|--1------3----1-|-----------------|
--2-------------|--------------0-|-------0---0-L--|-------0-2------|----0--------0-0-|
----------2-----|---------2------|---------2------|-----2----------|----2------3---3-|
--0---0-L-------|----------------|----------------|--0-------------|--0----0-L-------|
----------------|--1-------------|--3-------------|----------------|-----------------|


                                    ^      ^             ^          v    *Thmb
  E.  S S  E  S    S E  S S S E     E  S S E    S S    S E  S S S S S    E.  S S  S S S  
----------------|----------------|--5------7--7g8---|-----------0-----|-----------------|
----------------|----0--1---3-L--|--5------5------8-|----6--------3-1-|------1-1p-0---1-|
------0-2p-0--2-|----0--0---2-L--|-------5----------|---------------0-|-------------0---|
--------3-----3-|---------0------|-----7------------|----7------------|--------2--------|
----------------|----------------|--0---------------|--0----0-L-------|-----------------|
--1-------------|--3-------------|------------------|-----------------|--1--------------|


  *M                                                     ^            ^             
  S S S S S S E     E  S S E  E     E  S S S E  S    S S E  S E  S    E.  S E  S S  
-----------------|------------3--|--1-------------|----------------|---------------|
------0-1---3-L--|--4----6-L--1--|-----3----------|------1--L------|-------------3-|
----0---0---2-L--|--5------------|--3----3---2--0-|----0-0--L------|---------------|
----------3------|---------------|--------------3-|----------------|--3------------|
-----------------|-----6---------|--1------1------|--------------3-|--3--------3---|
--3--------------|--4------------|----------------|--1--------1----|--1---1-1------|


                                                                    [Interlude]

                  ^                     ^                              ^               
  E  S S E  E     E  S S S S S S    S S E  S E  S    S S S S S S E     S S S S E  S S  
---------------|--6--------------|----------------|----------0------|----7-8----------|
--4----6-L--8--|--6--------------|----------------|-----------------|--8-----8----8-6-|
--5---------5--|-----7-------0---|------5--L------|------5-----5----|--0-----0--------|
---------------|-------8---7---3-|----3-3--L----3-|----5---5--------|-----------------|
-----6---------|-----------------|--3--------3----|--3-----------3--|--8-------8------|
--4------------|--6------6-------|----------------|-----------------|-----------------|


                                            ^                                         
  S S S S E.  S    S S S S S S S S    E.  S E  S S    S S S S E  S S    S S S S Q     
--0-------------|------0-----------|---------------|----7-8----------|--0------------|
------3---------|----3-------------|---------------|--8-----8----8-6-|------3--------|
----0---5-----0-|--5-----5-------5-|-------------0-|--0-----0--------|----0---5------|
--3-------------|------------5-----|--------5------|-----------------|--3------------|
----------------|--------------3---|------3-3--3---|--8-------8------|---------------|
----------1-----|--0-------0-------|--0------------|-----------------|----------1----|


                           ^                                           
  S S S S S S S S    E.  S E  S S    S S S S S S S  S    S S S S Q     
------0-----------|---------------|----7-8------------|--0------------|
----3-------------|---------------|--8-----8---8-8p-6-|------3--------|
--5-----5---0---5-|--------5----0-|--0-----0----------|----0---5------|
--------------2---|------2-2--2---|-------------------|--3------------|
--0-------0-------|--0-----0------|--8-------8--------|---------------|
------------------|---------------|-------------------|----------1----|

                                                                     
  *Bar 3                                        ^   ^       ^               
  S S  S S S S S S    Q    S. S T  T T    S S S S S E  S    S S S S S E  S  
-------------------|-------------------|-----------------|--------8-L----3-|
----3h-5---------3-|------------3h-5---|-----------------|--6--------------|
--5------5-------5-|----------5------5-|------5-5---5----|------5-----5----|
--5----------5-----|-------------------|----5---5---5--5-|----5------------|
-------------------|-------------------|--3-----3---3----|--3--------------|
--3--------3---3---|--3----L-----------|-----------------|-----------------|


                                  [Verse 3]

  ^                 ^               ^                                 ^              
  S S S S S E  S    S S S S Q       E  S S E  S S    S E  S E   E     E  S S S E  S  
------0--------3-|------0--------|----------------|----------------|--0------0-1--0-|
--6--------------|--6------------|--1------3--1-3-|----1----1h--3--|----------------|
-----------------|--------5-L----|-------0--------|-------0--------|-------0--------|
----5-------5----|----5---5-L----|-----2----------|----------------|-----2----------|
--3-----3-L------|--3------------|--3-------------|--2-------------|--0-------------|
-----------------|---------------|----------------|----------------|----------------|


                   ^                                 ^                          
  S E  S S S E     E  S S S E  S    S E  S S S E     S S S S E  E     H         
----------------|--0------0-1--0-|----------------|--------3-------|-----------|
----1--------3--|----------------|----3------1-3--|--1---1---------|-----------|
-----------0----|-------0--------|-------0-L------|----0-----------|-----------|
-------2-L------|-----2----------|----------------|----------------|-----------|
----------------|----------------|----------------|--3-------2--0--|-----------|
--1-------------|--0-------------|--3-------------|----------------|--3--------|


                  [Chorus 3]
                     ^                                                               
  Q    E  T T T T    E.  S E.  S    E.  S S S S S    E  S S S E  S    E  S S S S E   
----------------3-|--3-----------|--0-----------0-|--1--3-1---0----|----------------|
--------------3---|--1-----3-----|------------3---|--1--------1--1-|-----0-1---3-L--|
------------0-----|--------0-----|--2-------------|--------------0-|-------0---0-L--|
----------0-------|------2-----2-|----------2-----|---------2------|---------2------|
------------------|--0-----------|--0---0-L-------|----------------|----------------|
--L----3----------|--------------|----------------|--1-------------|--3-------------|


         ^                      ^                                      ^      ^         
  E  S S E  S S    S E  S S S S S    E.  S S  E  S    S E  S S S E     E  S S E    S S  
--0---------0---|-----------------|----------------|----------------|--5------7--7g8---|
--1------3----1-|-----------------|----------------|----0--1---3-L--|--5------5------8-|
-------0-2------|----0--------0-0-|------0-2p-0--2-|----0--0---2-L--|-------5----------|
-----2----------|----2------3---3-|--------3-----3-|---------0------|-----7------------|
--0-------------|--0----0-L-------|----------------|----------------|--0---------------|
----------------|-----------------|--1-------------|--3-------------|------------------|


    ^          v    *Thmb             *M
  S E  S S S S S    E.  S S  S S S    S S S S S S E     E  S S E  E     E  S S S S  S S  
-----------0-----|-----------------|-----------------|------------3--|--1---------------|
----6--------3-1-|------1-1p-0---1-|------0-1---3-L--|--4----6-L--1--|-----3------------|
---------------0-|-------------0---|----0---0---2-L--|--5------------|--3----3---2p-0---|
----7------------|--------2--------|----------3------|---------------|----------------3-|
--0----0-L-------|-----------------|-----------------|-----6---------|--1------1--------|
-----------------|--1--------------|--3--------------|--4------------|------------------|


                               [Final Chorus]

                  ^               ^                                              
  E  E  S E  S    E.  S E  S S    E.  S E.  S    E.  S S S S S    E  S S S E  S  
---------------|---------------|--3-----------|--0-----------0-|--1--3-1---0----|
-----1--L------|---------------|--1-----3-----|------------3---|--1--------1--1-|
---------------|---------------|--------0-----|--2-------------|--------------0-|
-----3--L----3-|--3----------3-|------2-----2-|----------2-----|---------2------|
----------3----|--3--------3---|--0-----------|--0---0-L-------|----------------|
--1------------|--1---1-1------|--------------|----------------|--1-------------|


                          ^                      ^                                    
  E  S S S S E     E  S S E  S S    S E  S S S S S    E.  S S  E  S    S E  S S S E   
----------------|--0---------0---|-----------------|----------------|----------------|
-----0-1---3-L--|--1------3----1-|-----------------|----------------|----0--1---3-L--|
-------0---0-L--|-------0-2------|----0--------0-0-|------0-2p-0--2-|----0--0---2-L--|
---------2------|-----2----------|----2------3---3-|--------3-----3-|---------0------|
----------------|--0-------------|--0----0-L-------|----------------|----------------|
--3-------------|----------------|-----------------|--1-------------|--3-------------|


  ^      ^             ^          v    *Thmb             *M 
  E  S S E    S S    S E  S S S S S    E.  S S  S S S    S S S S S S E     E  S S E  E   
--5------7--7g8---|-----------0-----|-----------------|-----------------|------------3--|
--5------5------8-|----6--------3-1-|------1-1p-0---1-|------0-1---3-L--|--4----6-L--1--|
-------5----------|---------------0-|-------------0---|----0---0---2-L--|--5------------|
-----7------------|----7------------|--------2--------|----------3------|---------------|
--0---------------|--0----0-L-------|-----------------|-----------------|-----6---------|
------------------|-----------------|--1--------------|--3--------------|--4------------|


                       ^            ^                               ^               
  E  S S S E  S    S S E  S E  S    E.  S E  S S    E  S S E  E     E  S S S S S S  
--1-------------|----------------|---------------|---------------|--6--------------|
-----3----------|------1--L------|-------------3-|--4----6-L--8--|--6--------------|
--3----3---2--0-|----0-0--L------|---------------|--5---------5--|-----7-------0---|
--------------3-|----------------|--3------------|---------------|-------8---7---3-|
--1------1------|--------------3-|--3--------3---|-----6---------|-----------------|
----------------|--1--------1----|--1---1-1------|--4------------|--6------6-------|


                                   [Outro]

      ^                                                                                   
  S S E  S E  S    S S S S S S S S    S S S S S E  S    S S S S S E  S    S S S S S E  S  
----------------|----------0-------|--3-----3-L------|-----------------|----0------------|
----------------|------------------|-----------------|--6-----6-L----6-|--6--------------|
------5--L------|------5-----5-----|------5-----5----|------7----------|------5-----5----|
----3-3--L----3-|----5---5-----5---|----5----------5-|----8-------8----|--------5-L----5-|
--3--------3----|--3-------------3-|-----------------|-----------------|--3--------------|
----------------|------------------|--4--------------|--6--------------|-----------------|


                                                        *50bpm       *rall========
  S S S S S E  S    S S S S S E  S    S S S S S S E     E  E     S S S S S S S S  
--------3-L------|--------8-L------|--------6-L------|--------|--------------3-8-|
-----------------|--8---------8----|--6---------6-L--|--------|--------1-3-5-----|
------5-----5----|------5--------5-|------7----------|--------|------0-----------|
----5----------5-|----5------------|----8------------|-----8--|----2-------------|
--3--------------|-----------------|-----------------|--8-----|--3---------------|
-----------------|--4--------------|--6--------------|--------|------------------|

==>26bpm
   T  T  E   S  Q      
--15----15-----------||
-----13-----13--L----||
---------------------||
---------------------||
---------------------||
---------------------||




Duration Legend
---------------
W - whole
H - half
Q - quarter
E - 8th
S - 16th
T - 32nd
X - 64th
. - note dotted
|-n-|  - n-tuplets


Tablature Legend
----------------
L - tied note
x - dead note
g - grace note
(n) - ghost note
> - accentuded note
NH - natural harmonic
AH - artificial harmonic
TH - tapped harmonic
SH - semi harmonic
PH - pitch harmonic
h - hammer on
p - pull off
b - bend
br - bendRelease
pb - preBend
pbr - preBendRelease
brb - bendReleaseBend
\n/ - tremolo bar dip
\n - tremolo bar dive
-/n - tremolo bar Release up
/n\ - tremolo bar inverted dip
/n - tremolo bar return
-\n - tremolo bar Release down
S - shift slide
s - legato slide
/ -  slide into from below or out of upwards
\ -  slide into from above or out of downwards
~ - vibrato
W - wide vibrato
tr - trill
TP - tremolo picking
T - tapping
S - slap
P - pop
< - fade in
^ - brush up
v - brush down
Login or Register to remove this ad.