Ads

Brave Song (Angel Beats!) Guitar Tab

Submitted: Oct 06, 2013 by Basisti94

4.6
Average: 4.6 (10 votes)
Download | Listen
Game: Angel Beats!
Composer(s): Jun Maeda
Style: Arrangement, Fingerstyle, Tapped harmonics

AutoScroll: Slow | Medium | Fast
                        Brave Song
                                
Angel Beats!
Aoi Tada
Guitar arrangement by Basisti94 (Miro Laaksonen)
6.10.2013



Capo 3
Tempo ~ 128

     E  E  E  E  Q    E  E     E  E  E  E  Q    Q       E  E  E  E  Q    E  E   
E||-------------------------|------------------------|--0-----------0----1--0--|
B||--1--------1--3----1--3--|--L--1--------1----3----|-----------1-------------|
G||--------0----------------|-----------0------------|--------0----------------|
D||-----2-------------------|--------2---------------|-----2-------------------|
A||--3----------------------|-----2------------------|--0----------------------|
E||-------------------------|--0---------------------|-------------------------|


  E  E  E  Q.     Q       E  E  E  E  E  Q    E     E  E  E  Q    E  Q     
--L--------------------|--0-----------0--1----0--|--L---------------------|
-----1------------3----|-------------------------|-----1----------1--3----|
-----------0-----------|-----------0-------------|-----------0------------|
--------3--------------|--------2----------------|--------0---------------|
-----3-----------------|-----3-------------------|-----3------------------|
--1--------------------|--0----------------------|--3---------------------|


  ^                                                                     
  Q    Q    E  Q    E     E  E  H.              E  E  E  E  Q    E  E   
--0---------0--1----0--|--L------------------|-------------------------|
--1--------------------|-----1--L------------|--1--------1--3----1--3--|
--0--------------------|---------------------|--------0----------------|
-------2---------------|---------------------|-----2-------------------|
--0--------------------|--3------------------|--3----------------------|
-----------------------|---------------------|-------------------------|


  E  E  E  E  Q    Q       E  E  E  E  Q    E  E     E  E  E  Q.     Q     
------------------------|--0-----------0----1--0--|--L--------------------|
--L--1--------1----3----|-----------1-------------|-----1------------3----|
-----------0------------|--------0----------------|-----------0-----------|
--------2---------------|-----2-------------------|--------3--------------|
-----2------------------|--0----------------------|-----3-----------------|
--0---------------------|-------------------------|--1--------------------|


  E  E  E  E  E  Q    E     E  E  E  Q    E  Q       E  E  E  E  H         
--0-----------0--1----0--|--L---------------------|-----------------------|
-------------------------|-----1----------1--3----|--1--------1--L--------|
-----------0-------------|-----------0------------|--------0--------------|
--------2----------------|--------0---------------|-----2-----------------|
-----3-------------------|-----3------------------|--3--------------------|
--0----------------------|--3---------------------|-----------------------|


  Q.     Q    E  E  E     E  E  Q    Q    E  E     E  E  Q    Q    E  E   
-----------------------|------------------------|------------------------|
-----------------0--1--|--L---------------------|------------------------|
--0--------------------|-------------0----2-----|--0----------0----0-----|
--2------2----2--------|--------3---------------|--------0------------0--|
--0--------------------|-----3---------------3--|-----2------------------|
-----------------------|--1---------------------|--3---------------------|


  Q    Q    Q    Q       Q.     Q    E  E  E     E  E  Q    Q    E  E   
----------------------|-----------------------|------------------------|
----------------------|-----------------0--1--|--L---------------------|
--L-------------------|--0--------------------|-------------0----2-----|
-------0--------------|--2------2----2--------|--------3---------------|
--3---------3----2----|--0--------------------|-----3---------------3--|
----------------------|-----------------------|--1---------------------|


  E  E  Q    Q    E  E     Q    E  Q    E  E  E     E  E  E  E  H         
------------------------|------------------------|-----------------------|
-------------3----1-----|--L---------------------|-----------1--L--------|
--0---------------------|-------0----------------|--------0--------------|
--------0------------0--|------------------------|-----2-----------------|
-----2------------------|--3-------3----2--3-----|--3--------------------|
--3---------------------|---------------------3--|--L--------------------|


  E  E  E  E  E  E  Q       E  E  E   Q    E  E  E     E  E  E  Q    E  E  E   
--3----------------------|--0--------------------0--|--1-----3--1----0--------|
-----------1--3----------|--------0h--1----0--3-----|----------------------1--|
--------2--------2-------|--------------------------|-------------------------|
-----2--------------2----|-----2--------------------|-------------------------|
--0----------------------|--0-----------------------|-----3-------------3-----|
-------------------------|--------------------------|--1----------------------|


  E  E  E  E  E  E  E  E     E  E  E   E  Q    E  E     E  E  Q.     E  E  E   
--------------------------|--0-----------------0-----|------------------------|
--L-----0--1-----3--------|--------0h--1--3-------1--|--L---------------------|
--------------------0-----|--------------------------|-----0---------0-----0--|
--------3--------0-----0--|-----2--------------------|--------2---------3-----|
-----3--------------------|--0-----------------------|-----2------------------|
--1-----------3-----------|--------------------------|--0---------------------|


  E  E  Q    E  E  E  E     E  E  E  E  E  E  E  E     Q    Q    Q    E  E   
-------------------------|--------------------------|--5---------7----8-----|
----------------0-----1--|--L--0-----1-----3--------|--------------------8--|
--L----------0-----------|--------------------0-----|-----------------------|
--------3----------------|--------3--------0-----0--|-----------------------|
-----3-------------3-----|-----3--------------------|-------7---------------|
--1----------------------|--1-----------3-----------|--5--------------------|


  E  E  Q    E  E  E  E     Q    E  E  E  E  E  E     E  E  E  E  E  E  Q     
----------------0--------|-------------------------|-------------------------|
--L--6-------0-----3--1--|--L-------1--1--0-----1--|-----0-----1-----3-------|
-------------------------|-------------0-----0-----|--------0----------------|
--------0----------0-----|-------------------------|--------------------0----|
-------------------------|-------3-----------3-----|--------3----------------|
--3----------------------|--1----------------------|--1-----------3----------|


  Q    E  E  Q    Q       Q    E  Q    E  E  E     E  E  Q    Q    Q     
-----------------------|--6---------------------|-----------------------|
--4-------6-------8----|------------------------|--------1--------------|
-----------------------|-------7----------------|-------------0---------|
-------------6---------|----------8----7--5--3--|-----2------------2----|
-------6---------------|-------8----------------|--3--------------------|
--4--------------------|--6---------------------|-----------------------|


  Q    Q    Q    E  E     Q    E  E  Q    Q       Q    E  Q    E  E  E   
-----------------------|-----------------------|--6---------------------|
------------1-------1--|--4-------6-------8----|------------------------|
-------0---------------|-----------------------|-------7----------------|
-----------------------|-------------6---------|----------8----7--5--3--|
--3--------------3-----|-------6---------------|-------8----------------|
-----------------------|--4--------------------|--6---------------------|


                                                     TH                 
  E  E  Q    Q    Q       Q    E  Q    E  E  E       W                  
-----------------------|--3---------------------|---------------------||
--------1--------------|-------3--1-------------|--<>1----------------||
-------------0---------|---------------0--------|---------------------||
-----2------------2----|------------------0-----|---------------------||
--3--------------------|--3------------------3--|----L----------------||
-----------------------|------------------------|---------------------||




Duration Legend
---------------
W - whole
H - half
Q - quarter
E - 8th
S - 16th
T - 32nd
X - 64th
. - note dotted
|-n-|  - n-tuplets


Tablature Legend
----------------
L - tied note
x - dead note
g - grace note
(n) - ghost note
> - accentuded note
NH - natural harmonic
AH - artificial harmonic
TH - tapped harmonic
SH - semi harmonic
PH - pitch harmonic
h - hammer on
p - pull off
b - bend
br - bendRelease
pb - preBend
pbr - preBendRelease
brb - bendReleaseBend
\n/ - tremolo bar dip
\n - tremolo bar dive
-/n - tremolo bar Release up
/n\ - tremolo bar inverted dip
/n - tremolo bar return
-\n - tremolo bar Release down
S - shift slide
s - legato slide
/ -  slide into from below or out of upwards
\ -  slide into from above or out of downwards
~ - vibrato
W - wide vibrato
tr - trill
TP - tremolo picking
T - tapping
S - slap
P - pop
< - fade in
^ - brush up
v - brush down
Login or Register to remove this ad.

6 comments on Brave Song

Very Nice! This is my fav ED

5

Very Nice! This is my fav ED from an anime and i've always wanted to arrange a solo tab for it C:

Someone has really started to

Someone has really started to give 1 star ratings all around the site huh? I know I'm not the only one so stuff like that is pretty annoying.

Don't worry. Ratings here

Don't worry. Ratings here are pretty meaningless :-) We should probably just replace them with a thumbs up button or something.

You mean a 1-Up button

You mean a 1-Up button SMB3_1-up.png

I don't really mind but

I don't really mind but someone who for example might post his/her first arrangement here might be really discouraged for some random person giving him a 1 star for no reason

I agree with this, can be

I agree with this, can be quite disheartening especially if their excited about it