Brave Song (Angel Beats!) Guitar Tab

Submitted: Aug 10, 2013 by corntastic

4.5
Average: 4.5 (10 votes)
Download | Listen
Game: Angel Beats!
Composer(s): Jun Maeda
Style: Transcription

AutoScroll: Slow | Medium | Fast
Brave Song
Angel Beats
Jun Maeda
corntastic
9 8 2013

e----------------------------------------------------------------------------------
B-----------------------8----8-9--8-----------8----8-9--8-------------8--8-9--8----
G--8----10-8-10-8--8-10-------------8-8----10-------------8-8----8-10-----------8--
D----------------------------------------------------------------------------------
A----------------------------------------------------------------------------------
E----------------------------------------------------------------------------------

e----------------------------------------------------------------------------------
B-----------------------8----8-9--8-----------8----8-9--8--------------------------
G--8----10-8-10-8--8-10-------------8-8----10-------------10----8-10--8------------
D----------------------------------------------------------------------------------
A----------------------------------------------------------------------------------
E----------------------------------------------------------------------------------

e----------------------------------------------------------------------------------
B----------------------------------------------------------------------------------
G-----------7-8----------------------------7-8-----------10-8----------------------
D--8---------------8-10-8--8-8----8--------------8-10-8----------------------------
A----10--10-------------------------10--10-----------------------------------------
E----------------------------------------------------------------------------------

e----------------------------------------------------------------------------------
B--10-11----------8-------8-9--11-9-8----------------------------------------------
G-----------10---------10--------------8---7-8-10----------------------------------
D----------------------------------------------------------------------------------
A----------------------------------------------------------------------------------
E----------------------------------------------------------------------------------


e------------------------------------------8--10-11--------------------------------
B--8------8-----------------------------------------11-9----8----------------------
G-----10----8----------------7-8-7-8-10-----------------------10-8-----------------
D-------------8----8-6-8--10-------------------------------------------------------
A----------------------------------------------------------------------------------
E----------------------------------------------------------------------------------


e----------------------------------------------------------------------------------
B------------------------------9---11--9--11---------------------------------------
G--8-8-7---8--7----8--10--11-----------------------------8-------------------------
D--------8------8----------------------------11----8-6-----------------------------
A----------------------------------------------------------------------------------
E----------------------------------------------------------------------------------

e-----------------9----------------------------------------------------------------
B----7---9---11--------------------------------------------------------------------
G--8-----------------10--------------8---------------------------------------------
D-----------------------11--10-8---------------------------------------------------
A--------------------------------11------------------------------------------------
E----------------------------------------------------------------------------------
Login or Register to remove this ad.

5 comments on Brave Song

It actually sounds really

5

It actually sounds really good. Nice job!

meh

2

no offense, but i was actually expecting the guitar part for this song, not the vocals on guitar. I gotta give u credit for even attempting to create this tab, but yeah.

rating

Tropical_SkyFly said

no offense, but i was actually expecting the guitar part for this song, not the vocals on guitar. I gotta give u credit for even attempting to create this tab, but yeah.

You shouldn't really vote tab low because it is not what you wanted. That's almost same as downvoting a bass tab because it's not for guitar. (It's also worth mentioning that this one seems to be for Aoi Tada version of Brave Song, not for Girls Dead Monster one)

I played around with it a little and as far as I can tell, it is correct.

Im sorry i misled you. i find

Im sorry i misled you. i find it more fun to play the melodies and vocals on guitar than the actual guitar stuff. i think it gives a lot more freedom for personal styling, so thats what i choose to tab.

I understand

Oh ok, i understand then. Yeah I usually prefer to play the guitar part unless there is no guitar being played in the song. But now that i know how u tab ur songs, i won't criticize ur tabs xD btw, im sorry if i did that. Considering how u tab ur songs, i should've given u a higher ranking, because the melody and vocals were good for what u tabbed. So in other words, good job :)