Answer Song (Angel Beats!) Guitar Tab

Submitted: Sep 22, 2013 by corntastic

3
Average: 3 (5 votes)
Download | Listen
Game: Angel Beats!
Composer(s): Jun Maeda
Style: Transcription

AutoScroll: Slow | Medium | Fast
Answer Song
Angel Beats!
Jun Maeda
corntastic
20 9 2013

Verse

e-------------------------------------------------------------------------
B------------------------------------8------------8-----------------------
G--7-5-4-7---------7-5-4-7--9-7----7---7-5-4----7---7-5-4-----------------
D-----------5-5-----------------------------------------------------------
A-------------------------------------------------------------------------
E-------------------------------------------------------------------------


e-------------------------------------------------------------------------
B------------------------------------8------------8-----------------------
G--7-5-4-7---------7-5-4-7--9-7----7---7-5-4----7---7-5-4-7--9--9---------
D-----------5-5-----------------------------------------------------------
A-------------------------------------------------------------------------
E-------------------------------------------------------------------------

______________________________________________________________________________

Bridge 


e----------------7-8---------8--------------------------------------------
B----7-8-10-8-10-----10-8------10-8---------------------------------------
G--7----------------------7---------7----7--9--9--------------------------
D-------------------------------------------------------------------------
A-------------------------------------------------------------------------
E-------------------------------------------------------------------------

e----------------7-8---------8--------------------------------------------
B----7-8-10-8-10-----10-8------10-8------8--10--10------------------------
G--7----------------------7---------7-------------------------------------
D-------------------------------------------------------------------------
A-------------------------------------------------------------------------
E-------------------------------------------------------------------------

______________________________________________________________________________

Chorus

e-------------------------7--7.-8--------------7--7.-8------10--8--7-----------------
B--8-7----8-----8--8.-10-----------8-8----10~~----------8-8-----------8----10----8.--
G------7-----7-----------------------------------------------------------------------
D------------------------------------------------------------------------------------
A------------------------------------------------------------------------------------
E------------------------------------------------------------------------------------


e-------------------------7--7.-8--------------7---8------10--8--7-------------------
B--8-7----8-----8--8.-10-----------8-8----10~~--------8-8-----------8--10------------
G------7-----7-----------------------------------------------------------------------
D------------------------------------------------------------------------------------
A------------------------------------------------------------------------------------
E------------------------------------------------------------------------------------

______________________________________________________________________________

Other chorus + other bridge


e-------------------------7--7.-8--------------7--7.-8------10--8--7-----------------
B--8-7----8-----8--8.-10-----------8-8----10~~----------8-8-----------8----10----8.--
G------7-----7-----------------------------------------------------------------------
D------------------------------------------------------------------------------------
A------------------------------------------------------------------------------------
E------------------------------------------------------------------------------------


e-------------------------7--7.-8--------------7--7.-8------10--8--7-----------------
B--8-7----8-----8--8.-10-----------8-8----10~~----------8-8-----------8----10----8---
G------7-----7-----------------------------------------------------------------------
D------------------------------------------------------------------------------------
A------------------------------------------------------------------------------------
E------------------------------------------------------------------------------------


e-------------------------------------------------------------------------
B--8-10-12-10.-8-8----8-10-12-10.-8-8-------7--8---10---8---10b-10b12-----
G----------------------------------------7--------------------------------
D-------------------------------------------------------------------------
A-------------------------------------------------------------------------
E-------------------------------------------------------------------------


e-------------------------------------------------------------------------
B--8-10-12-10.-8-8----8-10-12-10.-8-8--------8---7--8--10-----------------
G----------------------------------------7--------------------------------
D-------------------------------------------------------------------------
A-------------------------------------------------------------------------
E-------------------------------------------------------------------------

______________________________________________________________________________

KEYCHANGE Bridge + Chorus + End 


e-----------------------------7-8---------8-------------------------------
B-----------------7-8-10-8-10-----10-8------10-8--------------------------
G--7---9---9----7----------------------7---------7----7--9--9-------------
D-------------------------------------------------------------------------
A-------------------------------------------------------------------------
E-------------------------------------------------------------------------

e----------------7-8---------8--------------------------------------------
B----7-8-10-8-10-----10-8------10-8------8--10--10------------------------
G--7----------------------7---------7-------------------------------------
D-------------------------------------------------------------------------
A-------------------------------------------------------------------------
E-------------------------------------------------------------------------

e-------------------------8--8.-9--------------8---9------11--9--8-------------------
B--9-8----9-----9--9.-11-----------9-9----11~~--------9-9-----------9----11----9.----
G------8-----8-----------------------------------------------------------------------
D------------------------------------------------------------------------------------
A------------------------------------------------------------------------------------
E------------------------------------------------------------------------------------


e-------------------------8--8.-9--------------8--8.-9------11--9--8-----------------
B--9-8----9-----9--9.-11-----------9-9----11~~----------9-9-----------9----11----9L--
G------8-----8-----------------------------------------------------------------------
D------------------------------------------------------------------------------------
A------------------------------------------------------------------------------------
E------------------------------------------------------------------------------------


e-------------------------------------------------------------------------
B--9-11-13-11.-9-9----9-11-13-11.-9-9-------8--9---11---9---11b-11b13-----
G----------------------------------------8--------------------------------
D-------------------------------------------------------------------------
A-------------------------------------------------------------------------
E-------------------------------------------------------------------------

e--------------------------11---------------------------------------------
B--9-11-13-11.-9-9----9-11----11.-9-9-------9---8---9---11----------------
G----------------------------------------8--------------------------------
D-------------------------------------------------------------------------
A-------------------------------------------------------------------------
E-------------------------------------------------------------------------

Play Order:

Verse
Bridge
Chorus 1
Verse 
Bridge
Chorus 2
Bridgeychorusyendy
Login or Register to remove this ad.