Ads

Back Hall (Amnesia: The Dark Descent) Guitar Tab

Submitted: Oct 29, 2012 by scarecrowlol

5
Average: 5 (4 votes)
Download | Listen
Game: Amnesia: The Dark Descent
Composer(s): Mikko Tarmia
Style: Arrangement, Artificial harmonics, Fingerstyle, Natural harmonics

AutoScroll: Slow | Medium | Fast
Title: Back Hall
SubTitle: Amnesia: The Dark Descent
Artist: Mikko Tarmia
Music: Tabbed by Mitch Jackson
Tempo = 45

TS: 4/4 

Let Ring Throughout -->    
                                                                                                               ^
      E  E  E  Q     Q.            E  E  E  E  Q     Q          E  E  E  Q     Q.            E  E  E  E  Q     Q                                                         
E ||-------(5)------------------|--------------8-------------|-----------------3----------|--------------5-----8-------|
B ||--------6--------5----------|----------------------------|-----------3----------------|--------5-----------5-------|
G ||o----------7----------------|--------9-----------10------|--------3-------------------|-----------5-------(5)------|
D ||o----7----------------------|-----------10---------------|-----5----------------------|----------------------------|
A ||--5-------------------------|-----10---------------------|----------------------------|-----7----------------------|
E ||----------------------------|--8-------------------------|--3-------------------------|--5-------------------------|

                                                    NH     
      E  E  E  Q     Q.            E  E  E  E  Q     Q          E  E  E  Q     Q.            E  E  E  H           E                                                     
   |----------(5)---------------|-------------------<0>------|----------------(6)---------|-----------8L----------L----|
   |--------6--------5----------|--------8-------------------|--------6--------8----------|-----------8L----------L----|
   |-----------7----------------|--------------9-------------|-----------7----------------|--------9-------------------|
   |-----7----------------------|-----------12---------------|----------------------------|--------10------------------|
   |--5-------------------------|-----10---------------------|-----8----------------------|-----10---------------------|
   |----------------------------|--8-------------------------|--6-------------------------|--8-------------------------|

                                                                                  ^                            ^    
      E  E  E  Q     Q.            E  E  E  E  Q     Q          E  E  E  E  Q     Q          E  E  E  E  Q     Q                                                    
   |-------(5)------------------|--------------8-------------|--------------5-----3-------|--------------5-----8-------|
   |--------6--------5----------|----------------------------|-----------3--------3-------|--------5-----------5-------|
   |-----------7----------------|--------9-----------10------|--------3----------(3)------|-----------5-------(5)------|
   |-----7----------------------|-----------10---------------|-----5----------------------|----------------------------|
   |--5-------------------------|-----10---------------------|----------------------------|-----7----------------------|
   |----------------------------|--8-------------------------|--3-------------------------|--5-------------------------|

                                                    NH         NH
      E  E  E  Q     Q.            E  E  E  E  Q     Q          E  E  E  Q     Q.            E  E  E  H           E                                                  
   |----------(5)---------------|-------------------<0>------|----------------(6)---------|---------------------------||
   |--------6--------5----------|--------8-------------------|--------6--------8----------|-----------8L----------L---||
   |-----------7----------------|--------------9-------------|-<7>-------7----------------|--------9-----------------o||
   |-----7----------------------|-----------12---------------|----------------------------|-----------10L---------L--o||
   |--5-------------------------|-----10---------------------|-----8----------------------|-----10--------------------||
   |----------------------------|--8-------------------------|--6-------------------------|--8------------------------||

      ^ AH* AH**           >
      E. E   H             E.                                 
   |--5-<5>---------------------||
   |--6-------------------------||
   |--7-----<7>L-----------L----||
   |--7-------------------------||
   |--5-------------------------||
   |----------------------------||

* E (Octave + fifth) 12th fret

** D (Second Octave) 12th fret

Login or Register to remove this ad.

2 comments on Back Hall

Huh, Amnesia has music. Who

Huh, Amnesia has music. Who knew? (I was too busy pissing myself to notice)

Ikr

Lul yea this piece happened to catch my ear when i replayed it the other day