Namae no Nai Michi (Amatsuki) Guitar Tab

Submitted: Apr 15, 2011 by TrangOul

5
Average: 5 (5 votes)
Download | Listen
Game: Amatsuki
Composer(s): Yuki Kajiura, Masaki Suzuki, Mari Fukuhara
Style: Arrangement, Artificial harmonics, Fingerstyle

AutoScroll: Slow | Medium | Fast
'Namae no Nai Michi'
from Amatsuki
originally composed by Yuki Kajiura
arranged by Marcus Kasperski

Standard Tuning

Adagio

     E  E  E  E  E  E     E  E  E  E  E  S S    E  E  S S E  E  E     E  E  S S E  E  E   
E||--2--0--5--0--2--0--|--2--0--5--0--2--0---|--2--0--5---0--2--0--|--2--0--5---0--2--0--|
B||--------------------|---------------------|---------------------|---------------------|
G||--------------------|---------------------|---------------------|---------------------|
D||--------------------|---------------------|------------0--------|------------------4--|
A||--2--------0--------|---------------------|--2-----L-2----------|---------------------|
E||--------------------|--0--------2-----L-2-|---------------------|--0-----L-0-2--------|


                                                                                         Fermate  
  ^                                           ^                                          AH       
  Q    S S S S E  E     E  E  S S E  E  E     Q    E  E  E  S S    Q.     E  E  E        Q    E   
-------0-------0--2--|--2--3----2-2--0-----|--0----------0------|------------------|--<>14-------|
--3------3-2-3-------|--0---------------3--|--0----2--3-------3-|--2------2--------|----------2--|
--4--------2---------|--0---------2--------|--0----------4------|--4------3--------|-------------|
--4------------------|------------0--------|--2-----------------|------------------|-------------|
--2--------0---------|---------------------|-------------2------|------------------|-------------|
---------------------|--3-----3------------|----------------0---|--2---------2--2--|-----2-------|


  E  E  E  E  E  E     E  S S S S E  E  E     E  E  E  E  E  E     E  E  S S E  E  E   
--------2-----------|-------------3--------|--------------------|--2-----3-5-2--------|
--3-----3--2-----3--|--0------0-3-0--0-----|--------3--2-----5--|--3---------2-----2--|
-----------------2--|-----0-2-----------2--|--4-----4--------2--|-----2---------------|
-----4--------4-----|----------------------|-----2--------2-----|--0------------4-----|
--2--------0--------|----------------------|-----------0--------|------------4--------|
--------------------|--3----------3--------|--0-----------------|---------------------|


  E.  S S S E  E  E     S S S S S S E  E  E     E  E  S S E  E  E     E.  S S S E  E  S S  
--------2------------|--------------3--------|------------3--2--0--|--2-----3-2-0-----2-0-|
--3-----3---2-----3--|--0-------0-3-0--------|--0-----L-3-2--------|--3---------2---------|
------------------2--|------0-2--------------|--0-----L------------|---------------3------|
----------4----4-----|----0------------------|---------------2-----|--0---0---------------|
--2---2-----0--------|-----------------2--0--|--------2---0--------|----------0-4-----4---|
---------------------|--3-----------3--------|--0--0---------------|----------------------|


  ^                                         ^                                         
  E.  S S S E  E  E     Q    E  E.  E  S    E  S E  S E  E  E     E.  S S S E  E  E   
----------5-5--3--2--|--0----2--2--------|-----5-5--5-5--3--2--|--0-----2---------5--|
--3-----L---3--------|--3----3--3--------|--3----3----3--------|--------3---3-----3--|
--2-----L------------|--2-------2--------|--2------------------|---------------2-----|
--0-----L------------|----------4--------|--4------------------|---------------------|
---------------------|--------------5--4-|---------------------|--2---2-----0-----0--|
--3---3-----3--------|--3----------------|--2------------------|----------2----------|


  E  E.  S E  E  E     Q.     E  E  E      E  E  S S E  E  E     E  E  S S E.  S S S  
--6--5---3-3--8--6--|--5---------------|--10---------9--------|--7--5----3-5-----L-5-|
--6-----------------|---------------7--|---------7-7-------7--|--3-------3-3-----L-3-|
--------------------|------------------|---------7-7-------7--|------------2---------|
-----------5--7--8--|--7---------------|----------------7-----|------------0---0-----|
--------------------|---------4--5--7--|------9------9--------|----------------------|
--6--------3--5--6--|--5---------------|---7------------------|--3-----3-------------|


                         ^                                                                  
  E  S S E  E  S S E     E.  S S S E  E  S S     E.  S S S E  E  E     E  E  S S E.  S S S  
--3--5---3--2--2---0--|--------5-------------|--10---------9--------|--7--5----3-5-----L-5-|
--0------0--2------2--|--8-------8-7-----7---|---------7-7-------7--|--3-------3-3-----L-3-|
----------------------|--7---------6---------|---------7-7-------7--|------------2---------|
----------------------|--7------------4------|----------------7-----|------------0---0-----|
------------0----0----|--5---5-----4-------4-|-------9-----9--------|----------------------|
--0----0--------------|----------------------|---7------------------|--3-----3-------------|


                         ^                                                                
  E  S S E  E  S S E     E.  S S S E  E  S S    E  S E  S E  E   E     Q    S  S  Q.      
--3--5---7--5--5---0--|--------5-------------|-----7-7--7-7--9--10--|--9----L------------|
--0------0------------|--8-------8-7-----L-7-|--7-------------------|---------10-10------|
------------6------6--|--7---------6-----L---|--0---------0---------|--------------------|
----------------------|--7------------4------|--9-------------------|--7-----------------|
------------0----0----|--5---5-----4-----4---|----------------------|--9-----------------|
--0----0--------------|----------------------|----------------------|--------------------|


  E  E  E  E  E  E     E  E  E  E  E  S S    E  E  S S E  E   E      E  E  E  E  E  E     Q    E   
--2--0--5--0--2--0--|--2--0--5--0--2--0---|--2--0--5---0--2--(0)--|--------------------|----------|
--------------------|---------------------|-----------------------|--0--2--3--2--0-----|-------2--|
--------------------|---------------------|-----------------------|-----------------2--|----------|
--------------------|---------------------|------------0----------|--------------------|----------|
--2--------0--------|---------------------|--2-----L-2------------|-----0--2--0--------|----------|
--------------------|--0--------2-----L-2-|-----------------------|--3-----------3--2--|----------|


  E  E  E  E  E  E     S S S S S S E  E  E     S S E  E  S S E  E     S S S S S S E  E  E   
--------2-----------|--------0-2------------|----------------------|--5-3-2-0-----------0--|
--3-----3--2-----3--|--0---0-----0----0-----|--0------3--2-0-2-----|----------3------2--2--|
-----------------2--|--------------------2--|--0---0------------2--|--2---------2-3--------|
--------------------|--2-4------------------|----4-----------------|--0-------L-0----------|
-----2--------0-----|-----------------------|----------------0-----|--------------4--------|
--------------------|--3-----------3--------|------0---------------|--------------------2--|


  E  E  E  E  E  E     S S S S S S E  E  E     E  E.  S E  E  E     E  E  S S E  E  S S  
--------2-----------|------------0-2--------|-----------3--2--0--|--2-----3-2-0-----2-0-|
--3-----3--2-----3--|--0-----0-3------0-----|--0--0---3-2--------|--3---------2---------|
-----------------2--|------0----------------|--0-----------------|-----2---------3------|
--------------------|----0---------------4--|--------------2-----|--0-------------------|
-----2--------0-----|-----------------------|--------------0-----|------------4---------|
--------------------|--3-----------3--------|-----0--------------|----------------------|


  ^                                         ^                                         
  E.  S S S E  E  E     Q    E  E.  E  S    E  S E  S E  E  E     E.  S S S E  E  E   
----------5-5--3--2--|--0----2--2--------|-----5-5--5-5--3--2--|--0-----2---------5--|
--3-----L---3--------|--3----3--3--------|--3----3----3--------|--------3---3-----3--|
--2-----L------------|--2-------2--------|--2------------------|---------------2-----|
--0-----L------------|----------4--------|--4------------------|---------------------|
---------------------|--------------5--4-|---------------------|--2---2-----0-----0--|
--3---3-----3--------|--3----------------|--2------------------|----------2----------|


  E  E.  S E  E  E     Q.     E  E  E      E  E  S S E  E  E     E  E  S S E.  S S S  
--6--5---3-3--8--6--|--5---------------|--10---------9--------|--7--5----3-5-----L-5-|
--6-----------------|---------------7--|---------7-7-------7--|--3-------3-3-----L-3-|
--------------------|------------------|---------7-7-------7--|------------2---------|
-----------5--7--8--|--7---------------|----------------7-----|------------0---0-----|
--------------------|---------4--5--7--|------9------9--------|----------------------|
--6--------3--5--6--|--5---------------|---7------------------|--3-----3-------------|


                         ^                                                                  
  E  S S E  E  S S E     E.  S S S E  E  S S     E.  S S S E  E  E     E  E  S S E.  S S S  
--3--5---3--2--2---0--|--------5-------------|--10---------9--------|--7--5----3-5-----L-5-|
--0------0--2------2--|--8-------8-7-----7---|---------7-7-------7--|--3-------3-3-----L-3-|
----------------------|--7---------6---------|---------7-7-------7--|------------2---------|
----------------------|--7------------4------|----------------7-----|------------0---0-----|
------------0----0----|--5---5-----4-------4-|-------9-----9--------|----------------------|
--0----0--------------|----------------------|---7------------------|--3-----3-------------|


                         ^                                                                  
  E  S S E  E  S S E     E.  S S S E  E  S S    E  S E  S E  E   E     Q    S  S  Q    S S  
--3--5---7--5--5---0--|--------5-------------|-----7-7--7-7--9--10--|--9----L------------7-|
--0------0------------|--8-------8-7-----L-7-|--7-------------------|---------10-10----L---|
------------6------6--|--7---------6-----L---|--0---------0---------|----------------------|
----------------------|--7------------4------|--9-------------------|--7-------------------|
------------0----0----|--5---5-----4-----4---|----------------------|--9-------------------|
--0----0--------------|----------------------|----------------------|----------------------|


  Freely                                                                                     
  E.     E  S E  E  E     E.  E  S E  E  E     E  S S S S E  S S S S    E  S S S S E  E  E   
--7--------------------|--------------------|-----2----------0---0---|-------------0--0--0--|
-----------------------|--0-----------------|-----0----------2---2---|-----3---3---2--2--2--|
-----------------------|--------------------|------------------------|-----0---0------------|
-----------------------|--------------------|------------------------|----------------------|
-----------------------|--------------------|--2----2-2-2-0----0---0-|-------------0--0--0--|
--7------7--7-5--5--5--|--3---3--3-2--2--2--|------------------------|--3----3---3----------|


  accelerando.....................................   ritardando.........  ^               
  S S S S S S S S S S S S    S S S S S S E  E.  S    E  E  E  E  E.  S    H        E  E   
------------2-0-----0-2-3-|--2-----2-6-3-2--0-----|-----0-----0--2---3-|--2--------------|
--3---0-2-3-------2-------|------2--------------3-|--2-----3--0--------|--2-----------7--|
----0-----------2---------|----3------------------|--3-----------------|--3--------------|
--------------------------|-----------------------|--------------------|-----------------|
--------------0-----------|--------------2--------|--------------------|-----------------|
--3-----------------------|--2--------------------|--3--------3--------|--2--------------|


   a tempo                                                             ^                    
   E  E  S S E  E  E     E  E  S S E.  S S S    E  S S E  E  S S E     E.  S S S E  E  S S  
--10---------9--------|--7--5----3-5-----L-5-|--3--5---3--2--2---0--|--------5-------------|
---------7-7-------7--|--3-------3-3-----L-3-|--0------0--2------2--|--8-------8-7-----7---|
---------7-7-------7--|------------2---------|----------------------|--7---------6---------|
----------------7-----|------------0---0-----|----------------------|--7------------4------|
------9------9--------|----------------------|------------0----0----|--5---5-----4-------4-|
---7------------------|--3-----3-------------|--0----0--------------|----------------------|


                                                                       ^                    
   E.  S S S E  E  E     E  E  S S E.  S S S    E  S S E  E  S S E     E.  S S S E  E  S S  
--10---------9--------|--7--5----3-5-----L-5-|--3--5---7--5--5---0--|--------5-------------|
---------7-7-------7--|--3-------3-3-----L-3-|--0------0------------|--8-------8-7-----L-7-|
---------7-7-------7--|------------2---------|------------6------6--|--7---------6-----L---|
----------------7-----|------------0---0-----|----------------------|--7------------4------|
-------9-----9--------|----------------------|------------0----0----|--5---5-----4-----4---|
---7------------------|--3-----3-------------|--0----0--------------|----------------------|


                                              ^                                          
  E  S E  S E  E   E     Q    S  S  Q.        E  E  S S S S E  E     E  E  S S E  E  E   
-----7-7--7-7--9--10--|--9----L------------|--------0-------0--2--|--2--3----2-2--0-----|
--7-------------------|---------10-10------|--3-------3-2-3-------|--0---------------3--|
--0---------0---------|--------------------|--4---------2---------|--0---------2--------|
--9-------------------|--7-----------------|-----4----------------|------------0--------|
----------------------|--9-----------------|--2---------0---------|---------------------|
----------------------|--------------------|----------------------|--3-----3------------|


                        ritardando.......................
  ^                                        ^                ^              
  E  E  E  E  E  S S    Q.     E  E  E     Q.     Q.        H.             
--0-----------0------|---------2--------|----------------|---------------||
--0-----2--3-------3-|--2---------2-----|--2-------------|---------------||
-----0--------4------|--4------------4--|--3-------------|--4------------||
--2------------------|------------------|----------------|--4------------||
--------------2------|------------------|---------4------|--2------------||
-----------------0---|--2---------L--2--|--2-------------|---------------||




Duration Legend
---------------
H - half
Q - quarter
E - 8th
S - 16th
. - note dotted


Tablature Legend
----------------
L - tied note
(n) - ghost note
> - accentuded note
AH - artificial harmonic
^ - brush up
Login or Register to remove this ad.

2 comments on Namae no Nai Michi

Sir TrangOul comes with

5

Sir TrangOul comes with another great arrangement. I never played the game, but hell, I liked this song. Thanks for sharing!

Thanks alot, though, Amatsuki

Thanks alot, though, Amatsuki is an anime. :)