Ads

Sayonara mo Iwazu ni (Amanchu!) Guitar Tab

Submitted: Nov 07, 2020 by H.F. (Last updated: Nov 15, 2020)

0
Download | Listen
Game: Amanchu!
Composer(s): GONTITI
Style: Arrangement, Fingerstyle, Natural harmonics, Transcription

AutoScroll: Slow | Medium | Fast
Title: Sayonara mo Iwazu ni
Album: Amanchu!
Music: GONTITI
Tabber: H.F.

Tempo = 86


E |--7--5--0----|--7--5-------|--5--4-------|--5--4-------|--4----------|
B |--5----------|--7----------|--5----------|--6----------|-----7-------|
G |-------------|-------------|--4-----4----|--7----------|--6-----6----|
D |--7----------|-------------|-------------|-------------|-------------|
A |-------------|-------------|-------------|-------------|-------------|
E |-------------|-------------|-------------|-------------|-------------|


--4-----4----|--5----|-------|--------0----|--5-----4--------2----|--0----|
-----7-------|--7----|-------|-----0-------|----------------------|--2----|
-------------|--5----|-------|--1----------|--5-------------------|-------|
-------------|-------|-------|--2----------|--6-------------------|--4----|
-------------|-------|-------|-------------|----------------------|-------|
-------------|-------|-------|-------------|----------------------|-------|


-------------|--------0----|--5-----4--------5----|--7----|--2----|
--4-----2----|-----0-------|----------------------|-------|--4----|
--2----------|--1----------|--5-------------------|--6----|--5----|
-------------|--2----------|----------------------|--4----|-------|
--2----------|-------------|----------------------|-------|--3----|
-------------|--0----------|--4-------------------|-------|-------|


--------------0-------|--5-----4--------2----|--0----------|-------------|
--------0-------------|--5-------------------|--2----------|--4-----2----|
--1-----1-------------|--5-------------------|-------------|--4----------|
----------------------|----------------------|-------------|-------------|
-----2----------------|----------------------|-----4-------|-------------|
--0-------------------|--4-------------------|--2----------|--2----------|


--------------0-------|--5-----4--------5----|--7-------------------|--2----|
--------0-------------|----------------------|----------------------|--4----|
--1--------1----------|--5-------------------|--------------6-------|--5----|
--------2-------------|----------------------|--4-----4--7----------|-------|
-----2----------------|----------------------|-----4----------------|--3----|
--0-------------------|--4-------------------|----------------------|-------|


--7-----5--------0----|--7-----5--------0----|--4-------------------|
----------------------|----------------------|----------------------|
-----------5----------|-----------5----------|-----------1----------|
-----4----------------|-----4----------------|--------4-------------|
--0-------------------|--0-------------------|-----2----------------|
----------------------|----------------------|--0-------------------|


--------------4-------|--4-------------------|--4-------------------|
----------------------|--------7-------------|--------7--------4----|
-----------1----------|--5--------------5----|--5-------------------|
--------4-------------|--------4-------------|--------4-------------|
-----2----------------|-----6----------------|-----6----------------|
--0-------------------|--4-------------------|--4-------------------|


----------------------|----------------------|--7----|--4----|--5--4-------|
--5-----------2-------|--7-----------7-------|--7----|--5----|--5-----7----|
-----------2----------|----------------------|-------|-------|--5----------|
--------4-------------|--------7--11---------|-------|-------|-------------|
-----4----------------|-----9----------------|-------|-------|-------------|
--2-------------------|--7-------------------|-------|-------|-------------|


--0----|--2----------|--4----|--5--4--5----|--7----|-------|--4-----0----|
--0----|--0-----0----|--5----|--7----------|--7----|--7----|--5----------|
-------|--2----------|-------|-------------|-------|-------|-------------|
-------|-------------|--6----|--7----------|--9----|-------|--6----------|
-------|-------------|-------|-------------|-------|-------|-------------|
-------|-------------|-------|-------------|-------|-------|-------------|


--5--4-------|--0----|-------------|--------0----|--5--4--5----|--7----|--2----|
--7-----7----|--2----|--4-----2----|--0----------|--7----------|-------|--4----|
-------------|-------|--4----------|-----1-------|-------------|--6----|-------|
--6----------|--4----|--4----------|--2----------|--6----------|--4----|-------|
-------------|-------|-------------|-------------|-------------|-------|-------|
-------------|-------|-------------|-------------|-------------|-------|-------|


--------2-----2--0----|--5--2-------|--------2-----2--0----|--5----------|
--------3-------------|--2----------|--1-------------------|-----3-------|
--------2-------------|-------------|--------2-------------|-----4-------|
--0-------------------|--0----------|--0-------------------|-------------|
----------------------|-------------|----------------------|-------------|
----------------------|-------------|----------------------|--3----------|


-----------------0----|-------------|-------------|-------------|
--------3-----3-------|--2-----0----|--2----------|-------------|
--0-----4-------------|-----0-------|-----2-------|-----2-------|
----------------------|-----2-------|--4----------|-----4-------|
----------------------|--0----------|--5----------|--6----------|
--0-------------------|-------------|-------------|-------------|


--------2-----2--0----|--5--0-------|--------0-----0-------|--2----------|
--------3-------------|-----3-------|--------2--------3----|-----1-------|
--------4-------------|--3----------|--2-------------------|-----2-------|
----------------------|-------------|----------------------|-------------|
----------------------|-------------|----------------------|--2----------|
--3-------------------|--3----------|--2-------------------|-------------|


----------------------|--0-------------------|--------0----|--2----|
--------0-----0--3----|--------2--------3----|--3----------|-------|
--------0-------------|--------0-------------|-----2--0----|--2----|
----------------------|----------------------|--0----------|-------|
----------------------|--0-------------------|-------------|-------|
--0-------------------|----------------------|-------------|-------|


--------0----|--5-----4--------2----|--0----------|-------------|--------0----|
-----0-------|----------------------|-----2-------|--4-----2----|-----0-------|
-----1-------|--------5-------------|-------------|-----2-------|-----1-------|
-----4-------|--------4-------------|-----4-------|-----4-------|-----2-------|
-------------|----------------------|-------------|--2----------|-------------|
--0----------|--4-------------------|--2----------|-------------|--0----------|


--5-----4--------5----|--7----------|--2----------|--------0----|
----------------------|-------------|-----4-------|-----0-------|
--------5-------------|-----6-------|-----5-------|-----1-------|
--------4-------------|--4--7-------|-------------|-------------|
----------------------|-------------|--3----------|-------------|
--4-------------------|-------------|-------------|--0----------|


--5-----4--------2----|--0----------|-------------|--------0----|
--------5-------------|-----2-------|--4-----2----|-----0-------|
--------5-------------|-----2-------|-----2-------|-----1-------|
----------------------|-------------|-----4-------|-----2-------|
----------------------|-------------|--2----------|-------------|
--4-------------------|--2----------|-------------|--0----------|


--5-----4--------5----|--7----------|--2----|--4-------------------|
--------5-------------|-----5-------|--4----|--------5-----5-------|
--------5-------------|-----6-------|--5----|-----4-----4----------|
----------------------|--4----------|-------|--2-------------------|
----------------------|-------------|--3----|----------------------|
--4-------------------|-------------|-------|----------------------|


--------------2-------|----------------------|--------------2-------|--4----||
--------5-------------|--------5-----5-------|--------5-------------|--5----||
-----4-----4----------|-----4-----4----------|-----4-----4----------|--4----||
--2-------------------|--2-------------------|--2-------------------|--2----||
----------------------|----------------------|----------------------|-------||
----------------------|----------------------|----------------------|-------||

Login or Register to remove this ad.