Ads

Princess Latifah (sh0wed's version) (Amagi Brilliant Park) Guitar Tab

Submitted: Aug 28, 2015 by Coolbreeze (Last updated: Aug 28, 2015)

5
Average: 5 (2 votes)
Download | Listen
Game: Amagi Brilliant Park
Composer(s): Shinkichi Mitsumune
Style: Arrangement, Artificial harmonics, Fingerstyle, Natural harmonics, Transcription

Click here for a video example.

AutoScroll: Slow | Medium | Fast
			Princess Latifah
		~Amagi Brilliant Park O.S.T~

Music by Shinkichi Mitsumune
Performed by sh0wed
Tabbed by Coolbreeze
Tempo = 84



     Q.     E  H           E  E  E  E  E  E  E  E     Q    E  E  H         
E||--0------1--L--------|-----1--0-----------------|--0----3--1--L--------|
B||--1------1--L--------|-----------1--------------|--1-------1--L--------|
G||--0------2--L--------|--------------0-----------|--0-------2--L--------|
D||---------------------|-----------------3--2--3--|----------------------|
A||---------------------|--------------------------|----------------------|
E||--0------1--L--------|--------------------------|--0-------1--L--------|


  E  E  E  E  E  E  E  E     Q    E  Q.     E  E     E  E  E  Q    E  E  E   
-----1--0-----------------|--3----7--8---------3--|--3--1--0----------0--1--|
-----------1--------------|--0-------5------1-----|--0--------3-------------|
--------------0-----------|--0-------5------------|--0-------------0--------|
-----------------3--2--3--|-----------------------|-------------------------|
--------------------------|----------0------------|-------------------------|
--------------------------|--0--------------------|--0--------3-------------|


  E  E     E  Q.     E  E     E  E  E  Q.     E  E     E  E  E  Q.     E  E   
--3--0--9g10--8---------3--|--3--1--0---------0--1--|--3--0--7--8---------3--|
--0-----------5------1-----|-----------3------------|--0--------5------1-----|
--0-----------5------------|--1---------------------|--0--------5------------|
---------------------------|------------------------|------------------------|
--------------0------------|------------------------|-----------0------------|
--0------------------------|--1--------3------------|--3---------------------|


                            ^                                          
  E  E  E  Q    E  E  E     Q    E  Q    E  E  E     W                 
--3--1--0----------0-----|------------------------|-------------------|
--0--------3----------3--|--1---------------------|-------------------|
--0-------------0--------|--2-------2----2--0-----|-------------------|
-------------------------|--1-------3----------3--|--2----------------|
-------------------------|------------------------|--3----------------|
--0--------3-------------|--1----1----------------|-------------------|


  Q.     E  Q    Q       E  E  E  E  E  E  E  E     Q    E  Q    E  Q     
--0------1--L----1----|--L--1--0-----------------|--0----3--1------------|
--1------1--L---------|-----------1--------------|--1-------1-------1----|
--0------2--L----2----|--L-----------0-----------|--0-------2-------2----|
----------------------|-----------------3--2--3--|-----------------------|
----------------------|--------------------------|-----------------------|
--0------1--L---------|--------------------------|--0-------1----1-------|


                                               NH    NH    NH    NH  
  E  E  E  E  E  E  E  E     Q      E    E     E     E     E     E   
--1--0--------------------|-----------------------------------------|
--------1-----------------|-----------------------------<>12--<>12--|
-----------0--------------|-----------------<>12--<>12--------------|
--------------3--2--3-----|-------<>2--<>2--------------------------|
-----------------------3--|--L--------------------------------------|
--------------------------|-----------------------------------------|


                                   NH    NH       NH                    
    E    E    E    E    E    E     E     E        E  E  Q    Q    Q     
------------<>3--<>3------------------------|--------------------------|
--<>3--<>3------------<>3--<>3--<>12--<>12--|--------------------------|
--------------------------------------------|--<>12--0-----------------|
--------------------------------------------|-----------0--------------|
--------------------------------------------|---------------------3----|
--------------------------------------------|--------------------------|


  W                  
-------------------||
-------------------||
-------------------||
--2----------------||
-------------------||
-------------------||
Login or Register to remove this ad.

2 comments on Princess Latifah (sh0wed's version)

THANK YOU!

I love you

:D

Very well done, I like it.