Ads

Good For You (Amagi Brilliant Park) Guitar Tab

Submitted: Feb 27, 2016 by quinndangle2 (Last updated: Feb 27, 2016)

5
Average: 5 (2 votes)
Download | Listen
Game: Amagi Brilliant Park
Composer(s): Shinkichi Mitsumune
Style: Arrangement, Fingerstyle

AutoScroll: Slow | Medium | Fast
Good for You
Composed by Shinkichi Mitsumune
From Amagi Brilliant Park OST
Tabbed by Brent Quinn

Moderate tempo (~90) solo classical piece, standard tuning, 4/4 time. A lot of the stretches 
in this are kinda challenging, even with larger hands they can be difficult. Song is otherwise
relatively straightforward with time signatures and note durations and whatnot. Try to hold
chords for as long as possible for best results.

If you really wanted to, to make the second section easier you could quickly put a capo on 3
between bar 9-16 and play the exact same as as the first 8 bars. There's ample time in the held
notes before and after these 8 bar sections to add/remove a capo, but this just comes down to
your own personal preference on whether you choose to do so.

Standard Tuning
4/4 time
~90 bpm

   E   E   E   E   E   E   E   E     E   E   E   E   Q    E   E     E   E   Q    E   E   E   E
E|-0-----------0---1-------0---1---|-3---------------3------------|---------5----3-----------1---|
B|-1-------1---1---3---------------|-1-----------1--------1---0---|--------------3-------3-------|
G|*0---0-----------2---2-----------|-0-------0--------------------|-2------------0---0-----------|
D|*2---------------0---------------|-2---2------------------------|-----3--------0---------------|
A|-3-------------------------------|------------------------------|--------------2---------------|
E|---------------------------------|------------------------------|--------------3---------------|


   E   E   E   E   Q    E   E     E   E   E   E   Q    E   E     E   E   E   E   Q    E   E
E|-0---------------0------------|----------------------0---1---|-3----------------------------|
B|-1-----------1--------1---0---|---------0---1---3------------|-3---------------1----1---0---|
G|-0-------0--------------------|-2---------------0------------|-0---------------2------------|
D|-2---2------------------------|-3---------------0------------|---------0-------2------------|
A|-3----------------------------|-3---3-----------2------------|-----2-------2---0------------|
E|------------------------------|-1---------------3------------|-0----------------------------|


   E   E   E   E   Q    Q      E   E   E   E   H       E   E   E   E   E   E   E   E
E|---------1-----------------|-----------------0-----|-3-----------3---4-------3---4---|
B|---------1---3---1----0----|-1-----------1---------|-4-------4-------6---------------|
G|-2---------------0----0----|-0-------0-------------|-3---3-----------5---5-----------|
D|-3-------------------------|-2---2-----------------|-5---------------3---------------|
A|-3---3---------------------|-3---------------------|-6-------------------------------|
E|-1---------------3----3----|-----------------------|---------------------------------|


   E   E   E   E   Q    E   E     E   E   Q    E   E   E   E     E   E   E   E   Q    E   E     
E|-6---------------6------------|---------8----6-----------4---|-3---------------3------------|
B|-4-----------4--------4---3---|--------------6-------6-------|-4-----------4--------4---3---|
G|-3-------3--------------------|-5----------------------------|-3-------3--------------------|
D|-5---5------------------------|-----6--------8---8-----------|-5---5------------------------|
A|------------------------------|------------------------------|------------------------------|
E|------------------------------|--------------6---------------|------------------------------|


   E   E   E   E   Q    E   E     E   E   E   E   Q    E   E     E   E   E   E   Q    Q
E|----------------------3---4---|-6----------------------------|---------4-----------------|
B|-----------------6------------|-6---------------4----4---3---|-------------6---4----3----|
G|-5-------7---8----------------|-3---------------5------------|-5---------------3----3----|
D|-6---------------8------------|---------3-------5------------|-6-------------------------|
A|-----6------------------------|-----5-------5---3------------|-6---6---------------------|
E|-4---------------6------------|-3----------------------------|-4---------------6----6----|


   E   E   E   E   H       E   E   E   E   H       E   E   E   E   H       E   E   E   E   E   E   E   E
E|-----------------3-----|-6---------------6-----|-4---------------4-----|-----------------6---------------|
B|-4-----------4---------|-7-----------7---------|-4-----------4---------|-------------6-------6-----------|
G|-3-------3-------------|-4-------4-------------|-----------------------|---------8---------------8-------|
D|-5---5-----------------|-4---4-----------------|-6-------6-------------|-----8-----------------------8---|
A|-6---------------------|-----------------------|-4---8-----------------|-6-------------------------------|
E|-----------------------|-4---------------------|-----------------------|---------------------------------|


   E   E   E   E   H       E   E   E   E   E   E   E   E     E   E   E   E   E   E   E   E
E|-----------------6-----|-6---------------6---------------|-4---------------4---------------|
B|-------------6---------|-7-----------7-------7-----------|-4-----------4-------4-----------|
G|---------8-------------|-4-------4---------------4-------|---------------------------------|
D|-----8-----------------|-4---4-----------------------4---|-6-------6---------------6-------|
A|-6---------------------|---------------------------------|-4---8-----------------------8---|
E|-----------------------|-4-------------------------------|---------------------------------|


   E   E   E   E   E   E   E   E     W        E   E   E   E   E   E   E   E     E   E   E   E   E   E   Q
E|-----------------6---------------|-6------|---------------------------------|-4-----------1----------------|
B|-------------6-------6-----------|-6------|-7-----------7-----------6---7---|-2-------2---------------2----|
G|---------8---------------8-------|-8------|-4-------4-----------------------|-1---1---------------1--------|
D|-----8-----------------------8---|-8------|-4---4---------------4-----------|------------------------------|
A|-6-------------------------------|-6------|---------------------------------|-1---------------1------------|
E|---------------------------------|--------|-4---------------4---------------|------------------------------|


   E   E   E   E   E   E   E   E     E   E   E   E   E   E   Q      E   E   E   E   E   E   E   E
E|-6-----------2---------------6---|-4-----------1----------------|---------------------------------|
B|-4-------4---------------4-------|-2-------2---------------2----|-7-----------7-----------6---7---|
G|-3---3---------------3-----------|-1---1---------------1--------|-4-------4-----------------------|
D|---------------------------------|------------------------------|-4---4---------------4-----------|
A|-2---------------2---------------|-1---------------1------------|---------------------------------|
E|---------------------------------|------------------------------|-4---------------4---------------|


   E   E   E   E   E   E   Q      E   E   E   E   E   E   Q      E   E   E   E   H
E|-4-----------1----------------|-6---------------6------------|-6-----------6---5-----|
B|-2-------2---------------2----|-4-------3---4-------4--------|-4-------4-------4-----|
G|-1---1---------------1--------|-3-----------------------3----|-5---5-----------5-----|
D|------------------------------|-5---5------------------------|-5---------------0-----|
A|-1---------------1------------|-3----------------------------|-0---------------------|
E|------------------------------|------------------------------|-----------------------|


   E   E   E   E   Q    E   E     E   E   E   E   Q    E   E     E   E   E   E   H
E|-6-------3---1---0----1---3---|-4-------1----------------1---|-----------------------|
B|-3---3-----------1------------|-1---1-------4---3----4-------|-7-------4---2---1-----|
G|-3---------------0------------|-1---------------3------------|-3---3-----------1-----|
D|-5---------------2------------|-3---------------3------------|-4---------------1-----|
A|------------------------------|-----------------1------------|-6---------------------|
E|------------------------------|------------------------------|-----------------4-----|

    W       E   E   E   E   E   E   E   E     E   E   E   E   Q    E   E     E   E   Q    Q    E   E
E|--------|-0-----------0---1-------0---1---|-3---------------3------------|---------5----3--------1---|
B|--L-----|-1-------1-------3---------------|-1-----------1--------1---0---|--------------3----3-------|
G|--L-----|-0---0-----------2---2-----------|-0-------0--------------------|-2------------0------------|
D|--L-----|-2---------------0---------------|-2---2------------------------|-----3--------0------------|
A|--------|-3-------------------------------|------------------------------|--------------2------------|
E|--L-----|---------------------------------|------------------------------|--------------3------------|


   E   E   E   E   Q    E   E     E   E   E   E   Q    E   E     H     Q    E   E
E|-0---------------0------------|----------------------0---1---|-3------------------|
B|-1-----------1--------1---0---|---------0---1---3------------|-3-----1----1---0---|
G|-0-------0--------------------|-2---------------0------------|-0-----2------------|
D|-2---2------------------------|-3---------------0------------|-0-----2------------|
A|-3----------------------------|-3---3-----------2------------|-2-----0------------|
E|------------------------------|-1---------------3------------|-0------------------|


   E   E   E   E   Q    Q      E   E   E   E   H       E   E   E   E   E   E   E   E
E|---------1-----------------|-----------------0-----|-0-----------0---1-------0---1---|
B|-------------3---1----0----|-1-----------1---------|-1-------1-------3---------------|
G|-2---------------0----0----|-0-------0-------------|-0---0-----------2---2-----------|
D|-3-------------------------|-2---2-----------------|-2---------------0---------------|
A|-3---3---------------------|-3---------------------|-3-------------------------------|
E|-1---------------3----3----|-----------------------|---------------------------------|


   E   E   E   E   Q    E   E     E   E   Q    Q    E   E     E   E   E   E   Q    E   E
E|-3---------------3------------|---------5----3--------1---|-0---------------0------------|
B|-1-----------1--------1---0---|--------------3----3-------|-1-----------1--------1---0---|
G|-0-------0--------------------|-2------------0------------|-0-------0--------------------|
D|-2---2------------------------|-----3--------0------------|-2---2------------------------|
A|------------------------------|--------------2------------|-3----------------------------|
E|------------------------------|--------------3------------|------------------------------|


   E   E   E   E   Q    E   E     Q.    E   Q    E   E     E   E   E   E   Q    Q
E|----------------------0---1---|-3----------------------|---------1-----------------|
B|---------0---1---3------------|-3-----0---1----1---0---|-------------3---1----0----|
G|-2---------------0------------|-0---------2------------|-2---------------0----0----|
D|-3---------------0------------|-0---------2------------|-3-------------------------|
A|-----3-----------2------------|-2---------0------------|-3---3---------------------|
E|-1---------------3------------|-0----------------------|-1---------------3----3----|

   W
E|--------|
B|-1------|
G|-0-----*|
D|-2-----*|
A|-3------|
E|--------|

Login or Register to remove this ad.