Ads

After the Shower (Amagami SS) Guitar Tab

Submitted: Jan 07, 2018 by Ttegdap

5
Average: 5 (1 vote)
Download | Listen
Game: Amagami SS
Composer(s): Toshiyuki Omori
Style: Arrangement, Fingerstyle

AutoScroll: Slow | Medium | Fast
Played gently and let ring throughout.
Based on a Transcription found here: https://www.youtube.com/watch?v=a1cdWnZYsys
Original for Reference: https://www.youtube.com/watch?v=kuUrr6W2sFw

                                                                        ^      
     E  E  E  E  Q.     E     E  E  E  E  Q.     E     E  E  E  E  Q    E  E   
E||--------0---------------|--2--3--2---------------|--------5-----0----------|
B||-----3---------------3--|--------------0------3--|--2--3-------------3--3--|
G||--2-----------2---------|--------------0---------|--------------0----4-----|
D||--------------4---------|--------------0---------|--------------0----4-----|
A||-----------0------------|-----------2------------|-----------3-------5-----|
D||--------0---------------|--------0---------------|--------0----------------|


                                                              ^                 
  E  E  E  E  E  E  E  E     E  E  E  E  E  E  E  E     E  E  E  E  E  E  Q     
--5--7--5-----3--------2--|--5--3--3--2--2--0--0-----|-----------------0-------|
--------3--------0--3-----|--2--------------------3--|--2--3--7-----------0----|
--------------0-----------|--------------4-----------|--4-----6----------------|
-----------0--------------|--4--------4-----4-----4--|-----4-----0--4----------|
--------------------------|--------2-----------0-----|-------------------------|
--------5-----------------|--------------------------|--------6----------------|


        ^           ^                                                       
  E  E  E  E  E  E  Q       Q    E  E  E  E  Q       E  E  E  E  Q.     E   
-----------------5-------|------------------------|--------0---------------|
--0--2--3--2--3-----3----|--2----3----------------|-----3---------------3--|
--------0-----------4----|-------------0----------|--2-----------2---------|
--------0-----------5----|-------------0-----4----|--------------4---------|
--------------------0----|----------0-----0--5----|-----------0------------|
--------2----------------|-------0----------------|--------0---------------|


  E  E  E  E  Q.     E     E  E  E  E  Q    E  E     E  E  E  E  E  E  E  E   
--2--3--2---------------|--------5-----0----------|--5--7--5-----3--------2--|
--------------0------3--|--2--3-------------3--3--|--------3--------0--3-----|
--------------0---------|--------------0----4-----|--------------0-----------|
--------------0---------|--------------0----4-----|-----------0--------------|
-----------2------------|-----------3-------5-----|--------------------------|
--------0---------------|--------0----------------|--------5-----------------|


                                   ^                         ^           ^     
  E  E  E  E  E  E  E  E     E  E  E  E  E  E  Q       E  E  E  E  E  E  Q     
--5--3--3--2--2--0--0-----|-----------------0-------|-----------------5-------|
--2--------------------3--|--2--3--7-----------0----|--0--2--3--2--3-----3----|
--------------4-----------|--4-----6----------------|--------0-----------4----|
--4--------4-----4-----4--|-----4-----0--4----------|--------0-----------5----|
--------2-----------0-----|-------------------------|--------------------0----|
--------------------------|--------6----------------|--------2----------------|


  Q    E  E  E  E  E  E     E  E  E  E  E  E  E  E     E  E  E  E  E  E  E  E   
----------------------0--|--2--3--5--------------5--|--5--7--5-----3-----------|
--2----3-----------------|--------------------------|-----------------------3--|
-------------0-----------|-----------------2--------|--------------0--2--------|
-------------0-----4-----|-----------2--4--------2--|--4--7-----0-----------0--|
----------0-----0--5-----|--------3-----------3-----|--------2-----------2-----|
-------0-----------------|--------------------------|--------------------------|


  E  E  E  E  E  E  E  E     E  E  E  E  E  E  E  E     E  E  E  E  E  E  E  E   
-----0--1-----------3--1--|--0--1--2--------------0--|--2--3--5--------------5--|
--3-----------------------|--------------------3-----|-----------------3--------|
--0--2-----------0--------|-----0-----------2--------|-----2--------2-----------|
-----------0--3--------0--|--3-----------4--------0--|--4--------4-----------4--|
--------1-----------1-----|--------0--3--------0-----|--------3-----------3-----|
--------------------------|--------------------------|--------------------------|


                                                                            ^     
   E  E  E  E  E  E  E  E      E  E  E  E  E  E  E  E     E  E  E  E  E  E  Q     
--10-----5-----3--------3--|--10--5--3--------------1--|--0--1--3-----------5----|
------7--------------------|---------------------------|-----------0--3--8--5----|
------7--------0--2--------|---0--2--------0-----------|-----0-----2--4-----6----|
---7--------0-----------0--|------------0-----0--------|--0--------2--5-----7----|
---------2-----------2-----|---------1-----------1--1--|--------0--------7--0----|
---------------------------|---------------------------|-------------------------|


  W                   E  E  E  E  Q.     E     E  E  E  E  Q.     E     E  E  E  E  Q    E  E   
--L----------------|--------0---------------|--2--3--2---------------|--------5-----0----------|
--L----------------|-----3---------------3--|--------------0------3--|--2--3-------------3--3--|
--L----------------|--2-----------2---------|--------------0---------|--------------0----4-----|
--L----------------|--------------4---------|--------------0---------|--------------0----4-----|
--L----------------|-----------0------------|-----------2------------|-----------3-------5-----|
-------------------|--------0---------------|--------0---------------|--------0----------------|


                                                              ^                 
  E  E  E  E  E  E  E  E     E  E  E  E  E  E  E  E     E  E  E  E  E  E  Q     
--5--7--5-----3--------2--|--5--3--3--2--2--0--0-----|-----------------0-------|
--------3--------0--3-----|--2--------------------3--|--2--3--7-----------0----|
--------------0-----------|--------------4-----------|--4-----6----------------|
-----------0--------------|--4--------4-----4-----4--|-----4-----0--4----------|
--------------------------|--------2-----------0-----|-------------------------|
--------5-----------------|--------------------------|--------6----------------|


                    ^                                                      
  E  E  E  E  E  E  Q       Q    E  E  E  E  E  E     E  E  H.             
-----------------5-------|-------------------------|---------------------||
--0--2--3--2--3-----3----|--2----3-----------------|---------------------||
--------0-----------4----|-------------0--------2--|---------------------||
--------0-----------5----|-------------0-----4-----|--4------------------||
--------------------0----|----------0-----0--5-----|-----5---------------||
--------2----------------|-------0-----------------|--------0------------||
Login or Register to remove this ad.