Rise From Your Grave (Altered Beast) Bass/Guitar Tab

Submitted: Apr 28, 2015 by andersongs87 (Last updated: Apr 28, 2015)

0
Download | Listen
Game: Altered Beast
Composer(s): Tohru Nakabayashi
Style: 2 or more instruments, Transcription

Click here for a video example.

AutoScroll: Slow | Medium | Fast
Altered Beast - Rise From Your Grave - Stage 01

Composers - Tohru Nakabayashi

Tabbed by andersongs87

Tuning: 
Guitar Standard (EADGBe)
Bass Standard (EADG)

MP3 Download : https://www.mediafire.com/?vr9161bg8e25q6j
Backing Track : https://www.mediafire.com/?h0guuzrceshc200
Youtube Cover : https://www.youtube.com/watch?v=76QCpQQq-4E

04/22/2015


Guitar Lead
e-------------------------------|-------------------------------------|----------------------------------------|
B-------------------------------|-------------------------------------|----------15-13-------------------------|
G------------------12-10~-------|---------------------12-10-----------|-15-14-15-------14-14----15-14-12----12-|
D-------12~--10-12-------10-12~-|----12~-10-12~-10-12-------13-10-12~-|----------------------15----------15----|
A-10-10-------------------------|-10----------------------------------|----------------------------------------|
E-------------------------------|-------------------------------------|----------------------------------------|

e----------------------|----------------------|-----------------------------------|
B----------------------|----------------------|-----------------------------------|
G----------------------|----------------------|-----------------------------------|
D-12-13-12-10-------12-|-10-12-10----------10-|-12---------10---------------------|
A-------------13-13----|----------13-12-12----|----8-10-12-----6-8-10-8-----------|
E----------------------|----------------------|-------------------------5-6-8-10~-|

e-----------------------------------------|-----------------------------------------|
B-----------------------------------------|--------------------------------------15-|
G----12-15-14-12----------------12-15-14--|-----12-15-14-12----------------12-15----|
D-13-------------15-13-15-12-13-----------|--13-------------15-13-15-12-13----------|
A-----------------------------------------|-----------------------------------------|
E-----------------------------------------|-----------------------------------------|

e-------------------------------------------|-------------------------------------------|
B-15-13-15----------13-13----13-------------|-15-13-15----------13-13----13-------------|
G----------12-14-15-------15-------12-14-15-|----------12-14-15-------15-------12-14-15-|
D-------------------------------15----------|-------------------------------15----------|
A-------------------------------------------|-------------------------------------------|
E-------------------------------------------|-------------------------------------------|

e----------15-13-------------------------------|
B-15-13-15-------16-15-13-11-13-15-------------|
G----------------------------------14-12-10-12-|
D----------------------------------------------|
A----------------------------------------------|
E----------------------------------------------|

Guitar Rhythm (Power Chords)
e--------------------------------------------------------------------------------------|
B--------------------------------------------------------------------------------------|
G-------------------------------7----5---7-5---------8-7-5-7---8-7-5-7-------8-----7---|
D-5~--3--5~-------5--3--5--5----7----5---7-5--3-5----8-7-5-7---8-7-5-7---5-3-8-3-5-7-5-|
A-5~--3--5~-------5--3--5--5----5----3---5-3--3-5----6-5-3-5---6-5-3-5---5-3-6-3-5-5-5-|
E-3~--1--3~-------3--1--3--3------------------1-3------------------------3-1---1-3---3-|

Bass

G---------------------|----|--------------------------|-------------------|
D---------------------|----|--------------------------|-------------------|
A------------1-0~-----|----|---1-0-1~-0-1---0~----5-5x|--------------1----|
E-3-3-3--1-3------1-3-|-3x-|-3------------3----1~-----|-3x-1x-3x-1-3---3x-|

   D   C  D  C  F  G
G---------------------|---------------------------------|----------------------------------|
D---------------------|----5--------5-------------------|----5---------5-------------------|
A-5xx-3xx-5x-3x-------|-6x---5x-6-5---3x-5x-6-5-3-6-5-3-|-6x---5x--6-5---3x-5x-6-5-3-6-5-3-|
E---------------1x-3x-|---------------------------------|----------------------------------|

G-----------------------------|
D-----------------------------|
A-------6x-------5x-----------|
E-3x-1x----1x-3x----5-3-1-3x~-|
Login or Register to remove this ad.