Forgotten Sorrow (Aion) Guitar Tab

Submitted: Mar 14, 2010 by diralark (Last updated: Sep 16, 2012)

5
Average: 5 (4 votes)
Download | Listen
Game: Aion
Composer(s): Ryo Kunihiko
Style: Arrangement, Fingerstyle

AutoScroll: Slow | Medium | Fast
                           Forgotten Sorrow  -  Aion 

Music by Ryo Kunihiko >> arr. for piano by Xjustamem0ryx >> Guitar solo arr. by diralark

Guitar   (capo 2), let ring
                             VII   -]                                          II    -]               
                 ^                      ^                                      ^                      
     E  S S Q    H           E.  S Q    H           E  E  E  E  E  E  E.  S    E  E  E  Q.     E.  S  
E||---------2-------------|--2-----5----0--------|--------0--2--3--5--2---0-|--2--------0------7-----|
B||--0----0------3--------|--3----------2--------|-----0--0-----0-----------|------------------0-----|
G||--------------0--------|--2---2------2--------|--0-----0-----0-----3-----|--4-----4-------------6-|
D||-----4-----------------|----------------------|--------0-----------------|-----4------------------|
A||-----------------------|--0----------0--------|--------------4-----------|--2---------------------|
E||-----------------------|----------------------|--0-----------------------|------------------------|


  VII                      --    -]                                            VII    -]                
  E   E  Q    Q.     E     E  E  E  E  E  E  Q       E  E  E  E  E  E  Q       E   E  E  E  E  E  Q     
------------------------|--------7--0--2-----2----|--------0--2--5--2--0----|---------7--0--2-----2----|
---------------------7--|-------------------------|-----0-----------0--2----|--------------------------|
------------------------|--------7-----------2----|-----2-----------2-------|---------7-----------2----|
---------9----9---------|-----------------4-------|-------------------------|------------------4-------|
------9-----------------|-----9--------0----------|--------------0----------|------9--------0----------|
--7---------------------|--7----------------------|--3----------------------|--7-----------------------|


                            II                                                II                       
  E  E  E  E  E  E  Q       E  E  E  E  E  E  E  E     E  E  Q    H           E  E  E  E  E  E  E.  S  
-----0--2--0--5--2-------|--------------------------|----------------------|--------------------------|
-----0--------------5----|-----------2--3--2--0-----|----------------------|--------3--2--3--2------3-|
-------------------------|--4-----------0-----------|----------------------|--------------------4-----|
--------------2----------|--4-----------0--------2--|--------2-------------|-----4--4-----------------|
--0----------------------|--2-----2-----------2-----|--4----------2--------|--2-----2-----2-----------|
--------3----------------|-----2--------------------|-----5--L----4--------|--2-----------------------|


  -- -]                              II                                          
             ^                                                      ^            
  E  E  Q    H           E  E  E  E  E  E  S  S S  S    E  E  E  E  E  E  E  E   
--------0-------------|--0-----------2---------------|--2-----0-----------------|
--2-----2----0--------|--0--------3--3----------3h-5-|--0--0-----3--0--------0--|
-----2-------1--------|-----0--2-----2--2--2h-4------|--------2-----1-----1-----|
--4----------2--------|------------------------------|-----------------2--------|
--2-----0-------------|------------------------------|--------------2-----------|
-------------0--------|--0-----------2---------------|--0-----------------------|


                                                                                             ^         
  E  E  E  E  E  E  E.  S    E  E  E  E  E  E  Q       E  E  Q    E  E  E.  S    E  E  E  E  H         
--0-----0--2--3--5--2---0-|-----------6-------------|--0-----0----2-----------|--2-----0-----0--------|
-----0--0-----0-----------|--7-----------7----------|--0--------------------3-|--0--0-----3--0--------|
--------0-----------3-----|--------8--------8-------|-----0--2----4--2--------|--------2-----1--------|
--2-----------2-----------|--------------------8----|-------------------4-----|--2-----2--------------|
--------------------------|-----9-------------------|-------------------------|--------------2--------|
--------3-----------------|-------------------------|--0----------2-----------|--0--------------------|


                                                        ^                      
  E  E  E  E  E  E  E  E     E  E  E  E  E  E  E  E     Q    E.  S E  Q    E   
--------0-----3-----2-----|--0-----0--4--------0--4--|--0----4-------------2--|
-----0--0--3-----0-----3--|--0--0--------0--0-----0--|--0---------------------|
--------------0-----------|--------------1-----------|-------1----------------|
--2-----------------------|--2-----------------------|-----------2------------|
--------------------------|--------------------------|-------------2--2-------|
--0-----------------------|--0-----------------------|--4---------------------|


  II     -]    II                                       II         -]   II          
  E  S S E  E  E  S S Q       E  E  E  E  E  E  Q       E  S S S S S  S E  E  Q     
------------0--2-----------|--2-----0--2--5--2--0----|------------------2----------|
---------3--------2---2----|-----0-----------0--2----|---------3--------------2----|
--------------------4------|-----2-----------2-------|-------------2h-4------------|
-----4-2-4--------4--------|-------------------------|-----4-2-4-2---------4-------|
--2------------0-----------|--------------0----------|--2---------------0----------|
---------------------------|--3----------------------|-----------------------------|


              II            --                         -- -]                  II                       
                                                                  ^                                    
  E  E  E  E  E  E  Q       E  E  E  E  E  E  E  E     E  E  Q    H           E  E  E  E  E  E  E.  S  
-----0--2--0--5--2-------|--------------------------|--------0-------------|--------------------------|
-----0--------------5----|--------3--2--3--2--------|-------------0--------|--------3--2--3--2------3-|
-------------------------|--------------------4-----|-----2-------1--------|--------------------4-----|
--------------2----------|--4-----4--------------2--|-------------2--------|-----4--4-----------------|
--0----------------------|--2-----------2-----------|--4-----0-------------|--2-----------2-----------|
--------3----------------|-----2--------------------|-------------0--------|--2-----------------------|


                                                                   ^                                    
  E  E  Q    E  E  E  E     E  E  Q    E  E  E   E     E  E  E  E  H           E  E  E  E  E  E  E  E   
--------0----------------|--------------------------|-----------------------|--------------------------|
--2----------0--0--------|--------------------------|-----------------------|--------------------------|
-----2-------1-----1-----|--------------------------|-----------------------|--------------0-----------|
--4----------2--------2--|--2-----2----4-----0h--2--|--4-----2--0--2--------|--------2--0--------4--0--|
--2-----0-------2--------|--2-----0-------0---------|--2--2--0-----2--------|-----2--2--------2--------|
-------------0-----------|-----3--------------------|--0-----------4--------|--0-----------------------|


                                                                           II           
  E  E  E  E  S S S S S  S S S      E  E  E  E  E  E  E  E     E  E  E  E  E  E  E  E   
-------------------------------||---------------------------|--------------------------|
-----0--------0----------------||---0-----0-----------2-----|--------3-----------2-----|
--------1--1-----------------2-||*-----------------------2--|--------4--4--2--------2--|
-----------2----------2h-4-6---||*-----0-----4-----2--------|--0--4-----------2-----4--|
-----2--2-----------2----------||---2-----------0-----------|--2-----------4-----------|
--0-----------0-2-4------------||---3-----------------------|--------------------------|


  --                         --                                            II           
  E  E  E  E  E  E  E  E     E  E  S  S E  S  S E  S S  S S    E  E  E  E  E  E  E  E   
--------------------------|---------------------------------|--------------------------|
--2--3--2--3--2-----------|-----3--2h-3-5--3p-2----2--------|--0-----0-----------2-----|
--2--4--2--2--2-----2-----|---------------------4---------2-|--------------------2--2--|
--2--2--------2--4-----2--|-----4--------------------2h-4---|--0--0-----4--2--2--------|
--4-----------4--4--------|--2------------------2-----------|--2-----------0-----------|
--2-----------2-----------|---------------------------------|--3-----------------------|


  E  E  E  E  E  S  S S  S S  S    E  E  E  E  E  E  S  S S S    E  E  E  E  E  E  E  E   
--------------------------------|-----------------------------|-----------0--------0-----|
--------3--0--2------------0h-2-|--3--1--1--0--0--------------|--------3-----2--3--2--2--|
--------4-----2-------0h-2------|--0--0--0--0--0----------0---|--------------2-----------|
--0--4--------2--2h-4-----------|--2--2--2--2--2--------------|-----4-----4-----4--------|
--2-----------4-----------------|-----3--3--2--2--3--3p-2---0-|--2--------------------0--|
--------------3-----------------|-----------------------------|--------------------------|


1.______________                                        VII                          
                                                                           |--3--|   
  E  E  E  E  E  E  E  S  S    E  E  E  E  Q    Q       E   E  E  E  E.  S E  E  E   
----------------------------|--------------0----4----|--2---3--1--2--2---3-3--1--2--|
--3-------------------------|--0--------0------------|--3------------2--------------|
--------------0-----2-------|--------1-----1---------|--4------------3--------------|
--0-------------------------|--2--------4------------|------------------------------|
-----3--3--2--2--0-----2h-3-|-----2------------------|------------------------------|
--3-----3-------------------|--0--2------------------|------------------------------|


                                 |--3--|                                                     
  E  E  E  E  Q    Q       E.  S E  E  E  E  E  E  E     E  E  E  E  E  T  T  T  T  S S S S  
--2--3--1--2--2---------|--0---2-2-----0--0--2-----0--|--0-----0--2--0----------------------|
--1-----------0----0----|--0--------4-----------4-----|--0--3--3-----0--3h-5p-3p--------0---|
--2-----------1---------|--0--------------3-----------|--0-----4-----1-----------4h-6-3---6-|
------------------------|-----------------4-----------|-------------------------------------|
------------------------|-----------------------------|-------------------------------------|
------------------------|-----------------------------|-------------------------------------|


                                                                          II    -]                 
  |--3--|  |--3--|                 |--3--|  |--3--|                          |--3--|               
  E  E  E  E  E  E  E  E  E  E     E  E  E  E  E  E  E.  T  T Q       E.  S  E  E  E  E  E  E  E   
-----2--3--1--2--2--2--3--1--2--|--2--3--1--2--3--3--2-------------|--0---2--2-----0--0--2--3--0--|
--3-----------------2-----------|--1--------1--------0---5p-3------|--0---------4-----------------|
--------------------------------|-----0-----------0-----------4----|------------------0-----0-----|
--------------------------------|------------------------2---------|--2------------------------2--|
--2-----------------1-----------|--0-------------------------------|------------------------------|
--------------------------------|--------------------0-------------|--3---2-----------3-----------|


                                                                      2._______________
                II                                                                                 
  S S S S S S S S  S S S S S S S S    S S S S E  S S S S S S E  E       E  E  E  E  E  E  E  S  S  
----0------------------------------|--------------------------------||----------------------------|
--1---1------------2---------------|--------------------------------||--3-------------------------|
--0-----0-------2----3---3-4-------|-------------------------------*||--------------0-----2-------|
----------3---3--------4-----4-----|----2--------------------------*||--0-------------------------|
--3---------3------4-------5---5-2-|--3---3---3----0-4-1---1-2--0---||-----3--3--2-----0-----2h-3-|
-----------------------------------|--3-----3-1--1---2---2----------||--------3-----0-------------|


                           --    -]                                            --    -]                
              ^                                                                                        
  E  E  E  E  Q.     E     E  E  E  E  E  E  Q       E  E  E  E  E  E  Q       E  E  E  E  E  E  Q     
--------0-----0------2--|--------7--0--2-----2----|--------0--2--5--2--0----|--------7--0--2-----2----|
-----------0------------|-------------------------|-----0-----------0--2----|-------------------------|
--------1-----1---------|--------7-----------2----|-----2-----------2-------|--------7-----------2----|
------------------------|-----------------4-------|-------------------------|-----------------4-------|
--2--2--------2---------|-----9--------0----------|--------------0----------|-----9--------0----------|
--0---------------------|--7----------------------|--3----------------------|--7----------------------|


                                     ^           ^                  
  E  E  E  E  E  E  Q       H        H           W                  
-----0--2--0--5--2--0----|--------------------|-------------------||
-----0--2----------------|--L--------5--------|--L----------------||
-------------------------|-----------2--------|--L----------------||
-----------------0-------|--L--------4--------|--L----------------||
--0----------------------|-----------2--------|--L----------------||
--------------3----------|--------------------|-------------------||




Duration Legend
---------------
W - whole
H - half
Q - quarter
E - 8th
S - 16th
T - 32nd
X - 64th
. - note dotted
|-n-|  - n-tuplets


Tablature Legend
----------------
L - tied note
x - dead note
g - grace note
(n) - ghost note
> - accentuded note
NH - natural harmonic
AH - artificial harmonic
TH - tapped harmonic
SH - semi harmonic
PH - pitch harmonic
h - hammer on
p - pull off
b - bend
br - bendRelease
pb - preBend
pbr - preBendRelease
brb - bendReleaseBend
\n/ - tremolo bar dip
\n - tremolo bar dive
-/n - tremolo bar Release up
/n\ - tremolo bar inverted dip
/n - tremolo bar return
-\n - tremolo bar Release down
S - shift slide
s - legato slide
/ -  slide into from below or out of upwards
\ -  slide into from above or out of downwards
~ - vibrato
W - wide vibrato
tr - trill
TP - tremolo picking
T - tapping
S - slap
P - pop
< - fade in
^ - brush up
v - brush down
Login or Register to remove this ad.

3 comments on Forgotten Sorrow

This is just THE BEST, thank

5

This is just THE BEST, thank you.

I started this game as soon

5

I started this game as soon as it went free2play :D Really like it, your tabs are totally underrated. You're easily one of the best tabbers on this site.

Thanx people. I appreciate

Thanx people. I appreciate your kind words.