Track 1 (Age of Empires II) Guitar Tab

Submitted: Sep 07, 2010 by Bhael

5
Average: 5 (5 votes)
Download | Listen
Game: Age of Empires II
Composer(s): David Rippy, Stephen Rippy, Kevin McMullan
Style: Arrangement, Fingerstyle

AutoScroll: Slow | Medium | Fast
                                    Track 1  
                               Age of Empires II                                   
                  David Rippy, Stephen Rippy, Kevin McMullan

Capo 5



     S S E  Q    S S E  Q       S S E  Q    S S E  S S E   
E||--------------------------|----------------------------|
B||--------------------------|----------------------------|
G||--------------0-----------|----------------------------|
D||--------------2-----------|----------------------------|
A||--3-3-3-------3-3-3-------|--3-3-3-------3-3-3--3-3-3--|
E||--------------------------|----------------------------|


  S S E  Q    S S E  Q       S S E  Q    S S E  S S E   
--------------------------|----------------------------|
--------------------------|----------------------------|
--------------0-----------|----------------------------|
--------------2-----------|----------------------------|
--0-0-0-------0-0-0-------|--0-0-0-------0-0-0--0-0-0--|
--------------------------|----------------------------|


  S S E  E  E  S S E  E  E     S S E  E  E  S S E  S S E   
----------------------------|-----------------------------|
----------------------------|-----------------------------|
---------------0------------|-----------------------------|
---------------2------------|-----------------------------|
--3-3-3--------3-3-3--------|--3-3-3--------3-3-3--3-3-3--|
---------x--3---------x--3--|---------x--3----------------|


  S S E  E  E  S S E  E  E     S S E  E  E  S S E  S S E   
----------------------------|-----------------------------|
----------------------------|-----------------------------|
---------------0------------|-----------------------------|
---------------2------------|-----------------------------|
--0-0-0--------0-0-0--------|--0-0-0--------0-0-0--0-0-0--|
---------x--0---------x--0--|---------x--0----------------|


  S S E  E  E  S S E  E  E     S S E  E  E  S S E  S  S E   
--0-------------------------|--0-------------------3p-2----|
----------------------3-----|---------------1---3-------3--|
---------------0------------|------------------------------|
---------------2------------|------------------------------|
--3-3-3--------3-3-3--------|--3-3-3--------3-3-3--3--3-3--|
---------x--3---------x--3--|---------x--3-----------------|


  S S E  E  E  S S E  E  S  S    S S E  E  E  S S E  S S E   
------------------------------|-----------------------------|
--0----------------------1p-0-|--1--------------------------|
---------------0--------------|-----------------------------|
---------------2--------------|-----------------------------|
--0-0-0--------0-0-0----------|--0-0-0--------0-0-0--0-0-0--|
---------x--0---------x--0----|---------x--0----------------|


  S S E  E  E  S S E  E  S S    S S E  E  E  S S E  S S E   
-----------------------------|----0----------3------6------|
---------------------------0-|--1------------3------3------|
--0------------0---------0---|-----------------------------|
---------------2-------------|-----------------------------|
--3-3-3--------3-3-3---------|--3-3-3--------3-3-3--3-3-3--|
---------x--3---------x--3---|---------x--3----------------|


  S S E  E  E  S S E  E  E     S S E  E  E  E  E  E  E   
--5-------------------------|------------------------5--|
--5-------------------------|---------------------1-----|
---------------0------------|------------------2--------|
---------------2------------|---------------------------|
--0-0-0--------0-0-0--------|--0-0-0--------0-----------|
---------x--0---------x--0--|---------x--0--------------|


                        ^                                    
    S S E  E  E  S S E  E  E     S S E  E  E  S S E  S S E   
|---3-------------------2-----|----------------------0---5--|
|-----------------------------|--3------------1---3---------|
|*---------------0------------|-----------------------------|
|*---------------2------------|-----------------------------|
|---3-3-3--------3-3-3--------|--3-3-3--------3-3-3--3-3-3--|
|----------x--3---------x--3--|---------x--3----------------|


                      ^                                      
  S S E  E  E  S S E  E  E     S S E  E  E  S S E  S S E     
--3-------------------2-----|--0-----------------------5---||
----------------------------|-------------------0--1-------||
---------------0------------|---------------2-------------*||
---------------2------------|-----------------------------*||
--0-0-0--------0-0-0--------|--0-0-0--------0-0-0--0-0-0---||
---------x--0---------x--0--|---------x--0-----------------||


  S S E  E  E  S S E  E  E     E  E  Q    E  E  Q       E  E  Q    E  E  Q     
--0-------------------------|------------------------|------------------------|
----------------------------|--1---------------------|--0---------------------|
----------------------------|------------------------|------------------------|
----------------------------|------------------------|------------------------|
--0-0-0--------0-0-0--------|--3--3-------3--3-------|--3--3-------3--3-------|
---------x--0---------x--0--|--------x----------x----|--------x----------x----|


                                                    ^                          
  E  E  Q    E  E  Q       E  E  Q    E  E  Q       S S E  E  E  S S E  E  E   
------------------------|------------------------|----------------------------|
------------------------|------------------------|--1-------------------------|
--2---------------------|--2---------------------|--0------------0------------|
------------------------|------------------------|--2------------2------------|
--0--0-------0--0-------|--0--0-------0--0-------|--3-3-3--------3-3-3--------|
--------x----------x----|--------x----------x----|---------x--3---------x--3--|


  ^            ^                ^                          
  S S E  E  E  S S E  S S E     S S E  E  E  S S E  E  E   
-----------------------------|----------------------------|
--1------------0-------------|----------------------------|
--0------------0-------------|--2-------------------------|
--2------------2-------------|--2------------2------------|
--3-3-3--------3-3-3--3-3-3--|--0-0-0--------0-0-0--------|
---------x--3----------------|---------x--0---------x--0--|


  ^                             ^                                            
  S S E  E  E  S S E  S S E     H          Q      Q       W                  
-----------------------------|--0----------------------|-------------------||
-----------------------------|--0----------------------|-------------------||
--2--------------------------|--0--------<>0----<>2----|--L----------------||
--2--------------------------|-------------------------|-------------------||
--0-0-0--------0-0-0--0-0-0--|--3----------------------|-------------------||
---------x--0----------------|-------------------------|-------------------||




Duration Legend
---------------
W - whole
H - half
Q - quarter
E - 8th
S - 16th
T - 32nd
X - 64th
. - note dotted
|-n-|  - n-tuplets


Tablature Legend
----------------
L - tied note
x - dead note
g - grace note
(n) - ghost note
> - accentuded note
NH - natural harmonic
AH - artificial harmonic
TH - tapped harmonic
SH - semi harmonic
PH - pitch harmonic
h - hammer on
p - pull off
b - bend
br - bendRelease
pb - preBend
pbr - preBendRelease
brb - bendReleaseBend
\n/ - tremolo bar dip
\n - tremolo bar dive
-/n - tremolo bar Release up
/n\ - tremolo bar inverted dip
/n - tremolo bar return
-\n - tremolo bar Release down
S - shift slide
s - legato slide
/ -  slide into from below or out of upwards
\ -  slide into from above or out of downwards
~ - vibrato
W - wide vibrato
tr - trill
TP - tremolo picking
T - tapping
S - slap
P - pop
< - fade in
^ - brush up
v - brush down
Login or Register to remove this ad.

3 comments on Track 1

Holy shit

5

Dam at first i couldnt tell wat the song was but man when i kept playing it i was like oh man this is the song i use to always hear while playing this game nice man. brought back good memories

peacefull melody.

peacefull melody.

:D

5

Had completely forgotten about that song! It's so beautiful I almost wanted to cry.