Level Summary (Aero the Acro-Bat) Guitar Tab

Submitted: Jul 23, 2010 by TKStriker

0
Download | Listen
Game: Aero the Acro-Bat
Composer(s): Darrin Stubbington, Jay Moon
Style: Transcription

AutoScroll: Slow | Medium | Fast
Aero the Acrobat - Level Summary 

I really like this song, and love this soundtrack. Check out my video for the 
timing. Enjoy.

e------9----------------------------------------------------------------------------
B--------------12-------11-------9--------------------------------------------------
G-9h10----9h10-----9h10-----9h10----12-11-9-----------------------------------------
D-----------------------------------------------------------------------------------
A-----------------------------------------------------------------------------------
E-----------------------------------------------------------------------------------

e-----------------------------------------------------------------------------------
B-----------------------------------------------------------------------------------
G-10------------10------------------10/11-10--------------10/11-10------------------
D----11-12---------11-12------10-------------13-11-10-13-----------13-11-10-13------
A----------13------------13------13-------------------------------------------------
E-----------------------------------------------------------------------------------

e------9----------------------------------------------------------------------------
B--------------12-------11-------9--------------------------------------------------
G-9h10----9h10-----9h10-----9h10----12-11-9-----------------------------------------
D-----------------------------------------------------------------------------------
A-----------------------------------------------------------------------------------
E-----------------------------------------------------------------------------------

e-----------------------------------------------------------------------------------
B-----------------------------------------------------------------------------------
G-10------------10-10-----------------10/11-10--------------------------------------
D----11-12------------11-12------10-------------13-11-10-13--11----------11---------
A----------13---------------13------13-----------------------------11-13------------
E------------------------------------------------------------------------------9----
Login or Register to remove this ad.