Annabelle (The Adventures of Bayou Billy) Guitar Tab

Submitted: Jun 11, 2010 by TKStriker (Last updated: Jun 11, 2010)

0
Download | Listen
Game: The Adventures of Bayou Billy
Composer(s): Atsushi Fujio, Jun Funahashi, Hidenori Maezawa, T. Ogura
Style: Alternate picking, Transcription

Click here for a video example.

AutoScroll: Slow | Medium | Fast
Bayou Billy - Annabelle

This is the song you hear if you're man enough to beat this street fighting,
driving, shooting, beast of a game. It's played mostly over ther 1st fret other
than one note played on the 6th fret of the 1st string. Check out my video if you
need the timing. Enjoy.

e----------------------------------------2-1----------------------------------------
B-------1-2-1---1-------4-2------------2-----2--------------------------------------
G-3---3-------3---1----------1-------3---------3-1---1-3-1--------------------------
D---------------------3--------4---4------------------------4-3-1-1-3---------------
A---------------------------------------------------------------------4-------------
E-----------------------------------------------------------------------------------

e---------------------------------------1-1-----1-----------------------1-1---------
B---------1-2-4-------------1-2-1-2-4-------------4-2-4-----------1-----------------
G-------3-------1---1---1-3-----------3-------3---------1-1---1-1---1-3-------------
D---1-3---------------4-------------------------------------------------------------
A-4---------------------------------------------------------------------------------
E-----------------------------------------------------------------------------------

e---1----------4--------1-4---2-4-2---2-1-------1--2-4-2-1-2-4-6-2------------------
B-----4-2-1--1---4-3--4-------------4-------2-4-------------------------------------
G-3---------------------------------------------------------------------------------
D-----------------------------------------------------------------------------------
A-----------------------------------------------------------------------------------
E-----------------------------------------------------------------------------------

e-2-4-2---2-1-------1--2-4-2-1-2-4-6----The song repeats from here------------------
B-------4-------2-4-----------------------------------------------------------------
G-----------------------------------------------------------------------------------
D-----------------------------------------------------------------------------------
A-----------------------------------------------------------------------------------
E-----------------------------------------------------------------------------------
Login or Register to remove this ad.