Ads

Title Theme (Adventure Time: Hey Ice King! Why'd you steal our garbage?!!) Guitar Tab

Submitted: Mar 30, 2013 by 60NCA10 (Last updated: Mar 30, 2013)

5
Average: 5 (4 votes)
Download | Listen
Game: Adventure Time: Hey Ice King! Why'd you steal our garbage?!!
Composer(s): Jake Kaufman
Style: Arrangement, Artificial harmonics

Click here for a video example.

AutoScroll: Slow | Medium | Fast
                         ADVENTURE TIME
                          "Theme Song"


                 Original song by: Pendleton Ward

                   Fingerstyle Arrangement by:
                         Gonçalo Martins
                         March 30th 2013




                       Verse 1:

                          G                      D                      
                          ^                      ^                      
     H.           Q       E  Q    H        E     Q    E  E  E  Q    E   
E||--------------------|--3--3----3--------0--|--2----0-----0----------|
B||--------------------|--0-------------------|--3-------3-----3----0--|
G||---------------0----|--0-------------------|--2---------------------|
D||--------------------|--0-------------------|--0---------------------|
A||--------------------|--2-------------------|------------------------|
E||--------------------|--3-------------------|------------------------|

                                              Verse 2:

  C                      D                      G                      
  ^                      ^                      ^    ^  v    v  ^      
  Q    Q    Q    Q       Q    E  Q    Q.        Q    E  Q    E  E  E   
----------------------|----------------------|--3----3--3----3--3--0--|
--1----0----1----3----|--3----0--------------|--3----3--3----3--3-----|
--0-------------------|--2-------2----0------|--0----0--0----0--0-----|
--2-------------------|--0-------------------|--0----0----------0-----|
--3-------------------|----------------------|--2----2----------2-----|
--3-------------------|----------------------|--3---------------3-----|


  D                        C                      D                    
  ^          ^             ^         ^            ^       ^            
  Q    E  E  E  Q    E     Q    Q    Q    Q       Q    E  Q    Q.      
--2----0-----0----------|----------------------|----------------------|
--3-------3--3--3----0--|--1----0----1----3----|--3----0--------------|
--2----------2----------|--0---------0---------|--2-------2----0------|
--0----------0----------|--2---------2---------|--0-------0-----------|
------------------------|--3---------3---------|----------------------|
------------------------|--3-------------------|----------------------|


  G                     G                                       
  ^                     AH                                        
  W                     W                   Q    H.             
--3----------------|--<>3----------------|--L-----------------||
--3----------------|----L----------------|--------------------||
--0----------------|----L----------------|--------------------||
--0----------------|----L----------------|--------------------||
--2----------------|----L----------------|--------------------||
--3----------------|----L----------------|--------------------||




Duration Legend
---------------
W - whole
H - half
Q - quarter
E - 8th
. - note dotted

Tablature Legend
----------------
L - tied note
AH - artificial harmonic
^ - down stroke
v - up stroke

Login or Register to remove this ad.

1 comment on Title Theme

Nice

5

I like the harmonic at the end. I posted a version of this theme a few years ago in the requests section, but I couldn't submit it because there wasn't a game back then. I might submit an updated version now that I can.