Ads

Jake's Theme (Advance Wars: Dual Strike) Guitar Tab

Submitted: Jun 03, 2011 by (Last updated: Jun 03, 2011)

0
Download | Listen
Game: Advance Wars: Dual Strike
Composer(s): Yoshito Hirano
Style: Alternate picking, Transcription

Click here for a video example.

AutoScroll: Slow | Medium | Fast
Jake's Theme
Advance wars: Dual Strike
Yoshito Hirano 
Link Strife07
6/3/11


e|----------------------------|
B|----------------------------|
G|----------------------------|
D|----------------------------|
A|-0-2-2-2---0-2-2-2---2-2-2--|
E|----------------------------|

e|----------------------------|
B|----------------------------|
G|----------------------------|
D|----------------------------|
A|-0-2-2-2---0-2-2-2----------|
E|----------------------------|

e|----------------------------|
B|-0-------7--5--3--2--3------|
G|----------------------------|
D|----------------------------|
A|----------------------------|
E|----------------------------|

e|----------------------------|
B|----------------------------|
G|-------------------2--------|
D|-2----0--0--0-0-0-----------|
A|----------------------------|
E|----------------------------|

e|----------------------------|
B|-0-------7--5--3--2--3------|
G|----------------------------|
D|----------------------------|
A|----------------------------|
E|----------------------------|

e|----------------------------|
B|----------------------------|
G|-------------------0--------|
D|-2----0--0--0-0-0-----------|
A|----------------------------|
E|----------------------------|

e|----------------------------|
B|-0-------7--5--3--2--3------|
G|----------------------------|
D|----------------------------|
A|----------------------------|
E|----------------------------|

e|----------------------------|
B|----------------------------|
G|-------------------2--------|
D|-2----0--0--0-0-0-----------|
A|----------------------------|
E|----------------------------|

e|----------------------------|
B|-0-------7--5--3--2--3------|
G|----------------------------|
D|----------------------------|
A|----------------------------|
E|----------------------------|

e|----------------------------|
B|------------------------3---|
G|-0----0--0--0--2--2--2------|
D|----------------------------|
A|----------------------------|
E|----------------------------|

e|----------------------------|
B|----------------------------|
G|----------------------------|
D|-----------------------0----|
A|-0-2-2-2---0-2-2-2--2-------|
E|----------------------------|

e|----------------------------|
B|----------------------------|
G|----------------------------|
D|----------------------------|
A|-0-2-2-2---2-0-0-0----------|
E|--------------------3-------|

e|----------------------------|
B|----------------------------|
G|----------------------------|
D|-----------------------0----|
A|-0-2-2-2---0-2-2-2--2-------|
E|----------------------------|

e|----------------------------|
B|----------------------------|
G|----------------------------|
D|----------------------------|
A|-0-2-2-2---2-0-0-0----------|
E|----------------------------|

e|----------------------------|
B|----------------------------|
G|----------------------------|
D|-----------------------0----|
A|-0-2-2-2---0-2-2-2--2-------|
E|----------------------------|

e|----------------------------|
B|----------------------------|
G|----------------------------|
D|----------------------------|
A|-0-2-2-2---2-0-0-0----------|
E|--------------------3-------|

e|----------------------------|
B|----------------------------|
G|----------------------------|
D|-----------------------0----|
A|-0-2-2-2---0-2-2-2--2-------|
E|----------------------------|

e|----------------------------|
B|----------------------------|
G|----------------------------|
D|----------------------------|
A|-0-2-2-2---2-0-0-0----------|
E|----------------------------|

e|----------------------------|
B|----------------------------|
G|--4~------------------------|
D|--4~------------------------|
A|--2~------------------------|
E|----------------------------|

e|----------------------------|
B|----------------------------|
G|----------------------------|
D|----------------------------|
A|-0-2-2-2--------0-2-2-2-----|
E|----------------------------|

e|----------------------------|
B|----------------------------|
G|--4~------------------------|
D|--4~------------------------|
A|--2~------------------------|
E|----------------------------|

e|----------------------------|
B|----------------------------|
G|----------------------------|
D|----------------------------|
A|-0-2-2-2--------------------|
E|----------------0---3-------|

e|----------------------------|
B|-0-------7--5--3--2--3------|
G|----------------------------|
D|----------------------------|
A|----------------------------|
E|----------------------------|

e|----------------------------|
B|----------------------------|
G|-------------------2--------|
D|-2----0--0--0-0-0-----------|
A|----------------------------|
E|----------------------------|

e|----------------------------|
B|-0-------7--5--3--2--3------|
G|----------------------------|
D|----------------------------|
A|----------------------------|
E|----------------------------|

e|----------------------------|
B|----------------------------|
G|-------------------0--------|
D|-2----0--0--0-0-0-----------|
A|----------------------------|
E|----------------------------|

e|----------------------------|
B|-0-------7--5--3--2--3------|
G|----------------------------|
D|----------------------------|
A|----------------------------|
E|----------------------------|

e|----------------------------|
B|----------------------------|
G|-------------------2--------|
D|-2----0--0--0-0-0-----------|
A|----------------------------|
E|----------------------------|

e|----------------------------|
B|-0-------7--5--3--2--3------|
G|----------------------------|
D|----------------------------|
A|----------------------------|
E|----------------------------|

e|----------------------------|
B|------------------------3---|
G|-0----0--0--0--2--2--2------|
D|----------------------------|
A|----------------------------|
E|----------------------------|

e|----------------------------|
B|----------------------------|
G|----------------------------|
D|----------------------------|
A|-0-2-2-2----0-2-2-2---------|
E|----------------------------|

e|----------------------------|
B|----------------------------|
G|----------------------------|
D|----------------------------|
A|-0-2-2-2---0-2-2-2---0------|
E|----------------------------|

e|----------------------------|
B|----------------------------|
G|----------------------------|
D|----------------------------|
A|-0-2-2-2---0-2-2-2---2-2-2--|
E|----------------------------|

e|----------------------------|
B|----------------------------|
G|----------------------------|
D|----------------------------|
A|-0-2-2-2---0-2-2-2----------|
E|----------------------------|


Repeat if wanted! 

Enjoy***
Login or Register to remove this ad.