Sensei's Theme (Advance Wars 2: Black Hole Rising) Bass/Guitar Tab

Submitted: Oct 11, 2013 by suddenimpact711

0
Download | Listen
Game: Advance Wars 2: Black Hole Rising
Composer(s): Yoshito Hirano
Style: 2 or more instruments, Transcription

AutoScroll: Slow | Medium | Fast

Sensei's Theme
Advance Wars 2: Black Hole Rising


Composed by: Yoshito Hirano
Tabbed by: suddenimpact711


-Gtr I & II {Guitars} 
   Standard Tuning (E A D G B E) - 'Gtr 1' & 'Gtr 2'

-Gtr III {Bass} 
   Drop-D Tuning (D A D G) - 'Bass'

One of my favorites, try bending the strings 1/4 each note during measure 3 then gradually
bend up 1/2 a step on the first note in measure 6 and all other riffs with that note pattern
for a cool swing sound. Also note that the rap-off between guitars I & II that begins in 
measure 25 can be easily fused if you want to play this on one guitar. 
Alright get your swing on people.


  Q=210
 4/4
  Gtr I
  W          W          Q  Q  Q  Q    Q.    Q.    Q
|----------|----------|-------------|-----------------|
|----------|----------|-------------|-6---------------|
|----------|----------|-------5-----|-------5---------|
|----------|----------|-3-----------|-------------6---|
|----------|----------|-------------|-----------------|
|----------|----------|-------------|-----------------|
|
| Gtr II
| W          W          W             W
|----------|----------|-------------|-----------------|
|----------|----------|-------------|-----------------|
|----------|----------|-------------|-----------------|
|----------|----------|-------------|-----------------|
|----------|----------|-------------|-----------------|
|----------|----------|-------------|-----------------|
|
| Gtr III
| W          W          Q  Q  Q  Q    Q   Q    Q  Q
|----------|----------|-------------|-----------------|
|----------|----------|-------------|-----------------|
|----------|----------|----3-----3--|-----3-------3---|
|----------|----------|-3-----3-----|-3--------3------|


  Q  Q  Q  Q    Q.    Q.    Q    Q  Q  Q  Q    Q.    Q.    Q
|-------------|----------------|-------------|----------------|
|-------------|----------------|-------------|-6--------------|
|-------------|----------------|-------5-----|-------5--------|
|-5-----------|-5-----8-----5--|-3-----------|-------------6--|
|-------5-----|----------------|-------------|----------------|
|-------------|----------------|-------------|----------------|
|
| W             W                W             W
|-------------|----------------|-------------|----------------|
|-------------|----------------|-------------|----------------|
|-------------|----------------|-------------|----------------|
|-------------|----------------|-------------|----------------|
|-------------|----------------|-------------|----------------|
|-------------|----------------|-------------|----------------|
|
| Q  Q  Q  Q    Q   Q    Q  Q    Q  Q  Q  Q    Q   Q    Q  Q
|-------------|----------------|-------------|----------------|
|-------------|----------------|-------------|----------------|
|----5-----5--|-----5-------5--|----3-----3--|-----3-------3--|
|-5-----5-----|-5--------5-----|-3-----3-----|-3--------3-----|


  Q  Q  Q  Q    Q.    Q.    Q    Q  Q  Q  Q    Q.    Q.    Q
|-------------|----------------|-------------|----------------|
|-------------|----------------|-------------|-6--------------|
|-------------|----------------|-------5-----|-------5--------|
|-5-----------|-5-----8-----5--|-3-----------|-------------6--|
|-------5-----|----------------|-------------|----------------|
|-------------|----------------|-------------|----------------|
|
| W             W                Q  Q  Q  Q    Q.    Q.    Q
|-------------|----------------|-------------|----------------|
|-------------|----------------|-------------|-6--------------|
|-------------|----------------|-------5-----|-------5--------|
|-------------|----------------|-3-----------|-------------6--|
|-------------|----------------|-------------|----------------|
|-------------|----------------|-------------|----------------|
|
| Q  Q  Q  Q    Q   Q    Q  Q    Q  Q  Q  Q    Q   Q    Q  Q
|-------------|----------------|-------------|----------------|
|-------------|----------------|-------------|----------------|
|----5-----5--|-----5-------5--|----3-----3--|-----3-------3--|
|-5-----5-----|-5--------5-----|-3-----3-----|-3--------3-----|


  Q  Q  Q  Q    Q.    Q.    Q    Q  Q  Q  Q    Q.    Q.    Q
|-------------|----------------|-------------|----------------|
|-------------|----------------|-------------|-6--------------|
|-------------|----------------|-------5-----|-------5--------|
|-5-----------|-5-----8-----5--|-3-----------|-------------6--|
|-------5-----|----------------|-------------|----------------|
|-------------|----------------|-------------|----------------|
|
| Q  Q  Q  Q    Q.    Q.    Q    Q  Q  Q  Q    Q.    Q.    Q
|-------------|----------------|-------------|----------------|
|-------------|----------------|-------------|-6--------------|
|-------------|----------------|-------5-----|-------5--------|
|-5-----------|-5-----8-----5--|-3-----------|-------------6--|
|-------5-----|----------------|-------------|----------------|
|-------------|----------------|-------------|----------------|
|
| Q  Q  Q  Q    Q   Q    Q  Q    Q  Q  Q  Q    Q   Q    Q  Q
|-------------|----------------|-------------|----------------|
|-------------|----------------|-------------|----------------|
|----5-----5--|-----5-------5--|----3-----3--|-----3-------3--|
|-5-----5-----|-5--------5-----|-3-----3-----|-3--------3-----|


  Q     H.         W          H     Q  Q     Q   E  Q   E  Q
|----------------|----------|-------------|--------------------|
|----------------|----------|-------------|--------------------|
|----------------|----------|-------------|-17-----16-----17---|
|-5--------------|----------|------15-----|--------------------|
|----------------|----------|-------------|--------------------|
|----------------|----------|-------------|--------------------|
|
| Q     H.         W          W              W
|----------------|----------|-------------|--------------------|
|----------------|----------|-------------|--------------------|
|----------------|----------|-------------|--------------------|
|-5--------------|----------|-------------|--------------------|
|----------------|----------|-------------|--------------------|
|----------------|----------|-------------|--------------------|
|
| S S E Q   H      W          H     H        Q.     Q.     Q
|----------------|----------|-------------|--------------------|
|----------------|----------|-------------|--3-----------------|
|----------------|----------|-------3-----|---------3----------|
|-5--------------|----------|-3-----------|----------------6---|


   +Q    H      Q     +Q    H       Q     Q  E  Q   E  Q    H       E  Q   E
|------------------|-------------------|------------------|------------------|
|-------18---------|-------------------|------------------|------------------|
|-(17)---------17--|-(17)--16------15--|------------------|------------------|
|------------------|-------------------|-18----15-----15--|------------------|
|------------------|-------------------|------------------|-----------18-----|
|------------------|-------------------|------------------|------------------|
|
|   W                  W                  W                 W
|------------------|-------------------|------------------|------------------|
|------------------|-------------------|------------------|------------------|
|------------------|-------------------|------------------|------------------|
|------------------|-------------------|------------------|------------------|
|------------------|-------------------|------------------|------------------|
|------------------|-------------------|------------------|------------------|
|
|   H       H          Q.     Q.    Q     H       H         Q.   Q.      Q
|------------------|-------------------|------------------|------------------|
|------------------|-------------------|------------------|-3----------------|
|------------------|-------------------|----------3-------|------3-----------|
|---5-------0------|---5------8-----5--|--3---------------|--------------6---|


   Q   H.                   W
|-----------------------|----------------------|
|-----------------------|----------------------|
|-----------------------|----------------------|
|-15--------------------|----------------------|
|-----------------------|----------------------|
|-----------------------|----------------------|
|
|  Q   E   E  E  E E  E    +E   Q   Q    E  Q
|-----------------------|----------------------|
|-----------------------|------18--------------|
|---------------15---17-|-(17)-----16---15-----|
|-----15--17-18---------|------------------18--|
|-----------------------|----------------------|
|-----------------------|----------------------|
|
|  H          H             Q.      Q.      Q
|-----------------------|----------------------|
|-----------------------|----------------------|
|-----------------------|----------------------|
|--5----------0---------|---5-------8-------5--|


  H     Q  Q     Q   E  Q   E  Q
|-------------|-------------------|
|-------------|-------------------|
|-------------|-17-----16-----17--|
|------15-----|-------------------|
|-------------|-------------------|
|-------------|-------------------|
|
| W              W
|-------------|-------------------|
|-------------|-------------------|
|-------------|-------------------|
|-------------|-------------------|
|-------------|-------------------|
|-------------|-------------------|
|
| H     H        Q.     Q.     Q
|-------------|-------------------|
|-------------|--3----------------|
|-------3-----|---------3---------|
|-3-----------|----------------6--|


   +Q    H      Q     +Q    H       E E    Q  E  Q   E  Q    H       E  Q   E
|------------------|--------------------|------------------|------------------|
|-------18---------|-------20------20---|-20----18-----18--|------------------|
|-(17)---------17--|-(17)---------------|------------------|-----------20-----|
|------------------|--------------------|------------------|------------------|
|------------------|--------------------|------------------|------------------|
|------------------|--------------------|------------------|------------------|
|
|   W                  W                   W                 W
|------------------|--------------------|------------------|------------------|
|------------------|--------------------|------------------|------------------|
|------------------|--------------------|------------------|------------------|
|------------------|--------------------|------------------|------------------|
|------------------|--------------------|------------------|------------------|
|------------------|--------------------|------------------|------------------|
|
|   H       H          Q.     Q.    Q      H       H         Q.   Q.      Q
|------------------|--------------------|------------------|------------------|
|------------------|--------------------|------------------|-3----------------|
|------------------|--------------------|----------3-------|------3-----------|
|---5-------0------|---5------8-----5---|--3---------------|--------------6---|


   Q   H.                 W
|----------------------|----------------------|
|-18-------------------|----------------------|
|----------------------|----------------------|
|----------------------|----------------------|
|----------------------|----------------------|
|----------------------|----------------------|
|
|  Q   E   E  E  Q   E    E   E  E  Q   Q.
|----------------------|----------------------|
|-----18---------------|-18-------------------|
|---------17-15--------|-----17-15------------|
|---------------18--18-|-----------18---------|
|----------------------|----------------------|
|----------------------|----------------------|
|
|  H          H           Q.        Q.     Q
|----------------------|----------------------|
|----------------------|----------------------|
|----------------------|----------------------|
|--5----------0--------|--5---------8------5--|


  Q.   S  S  H       Q   H     Q
|-----------------|----------------|
|-----------------|----------------|
|-----------------|----------------|
|-----------------|----------------|
|-----------------|------------8---|
|------8h10-11----|-11--11---------|
|
| W                  W
|-----------------|----------------|
|-----------------|----------------|
|-----------------|----------------|
|-----------------|----------------|
|-----------------|----------------|
|-----------------|----------------|
|
| W                  H      H
|-----------------|----------------|
|-----------------|----------------|
|-----------------|----------------|
|-6---------------|--1------6------|


  H.      Q    +Q   Q  Q  Q     E E  E E  E E  E E    E Q   E Q   E E
|------------|---------------|---------------------|------------------|
|------------|---------------|---------------------|------------------|
|------------|---------------|-----------15--------|-15----17----16---|
|------------|---------------|-15---18--------18---|------------------|
|------------|---------------|---------------------|------------------|
|---------6--|-(6)--4--6-----|---------------------|------------------|
|
| W             W               W                     W
|------------|---------------|---------------------|------------------|
|------------|---------------|---------------------|------------------|
|------------|---------------|---------------------|------------------|
|------------|---------------|---------------------|------------------|
|------------|---------------|---------------------|------------------|
|------------|---------------|---------------------|------------------|
|
| W             H      H        W                     H       H
|------------|---------------|---------------------|------------------|
|------------|---------------|---------------------|------------------|
|------------|---------1-----|---------------------|------------------|
|-8----------|--3------------|--6------------------|--1-------6-------|


   E E  E E  E  E  E  E   Q   E  E  E  Q.
|-----------------------|-------------------|
|--------------------16-|-------------16----|
|-15--------17-16-17----|----17-16-17-------|
|------18---------------|-------------------|
|-----------------------|-------------------|
|-----------------------|-------------------|
|
|  W                      W
|-----------------------|-------------------|
|-----------------------|-------------------|
|-----------------------|-------------------|
|-----------------------|-------------------|
|-----------------------|-------------------|
|-----------------------|-------------------|
|
|  Q    Q    H            W
|-----------------------|-------------------|
|-----------------------|-------------------|
|-----------------------|-------------------|
|--5--------------------|-------------------|


  H.        E E    E   E E  E  Q   Q
|---------------|---------------------|
|---------------|-----------------18--|
|---------------|-17--16---17---------|
|----------15---|---------------------|
|---------------|---------------------|
|---------------|---------------------|
|
| W                W
|---------------|---------------------|
|---------------|---------------------|
|---------------|---------------------|
|---------------|---------------------|
|---------------|---------------------|
|---------------|---------------------|
|
| H     H          Q.       Q.     Q
|---------------|---------------------|
|---------------|--3------------------|
|-------3-------|-----------3---------|
|-3-------------|------------------6--|


   +H.        S  E.   Q    H      Q    H.        E E    E   E E  E  Q   Q
|------------15h16--|----------------|---------------|---------------------|
|-(18)--------------|-----18---------|---------------|-----------------18--|
|-------------------|----------------|---------------|-17--16---17---------|
|-------------------|----------------|----------15---|---------------------|
|-------------------|----------------|---------------|---------------------|
|-------------------|----------------|---------------|---------------------|
|
|   H.        S  E.   Q    H      Q    W                W
|-------------------|----------------|---------------|---------------------|
|-------------------|----------------|---------------|---------------------|
|-------------------|----------------|---------------|---------------------|
|------------17h18--|-----15---------|---------------|---------------------|
|-------------------|----------------|---------------|---------------------|
|-------------------|----------------|---------------|---------------------|
|
|   H     H           Q.     Q.   Q    H     H          Q.       Q.     Q
|-------------------|----------------|---------------|---------------------|
|-------------------|----------------|---------------|--3------------------|
|-------------------|----------------|-------3-------|-----------3---------|
|---5-----0---------|-5------8----5--|-3-------------|------------------6--|


   +H.       Q     E   E E  E  E  Q.      H.        E E    E   E E  E  Q   Q
|---------------|-----------------------|---------------|---------------------|
|-(18)----------|-----------------------|---------------|-----------------18--|
|---------------|-17--16---15-----------|---------------|-17--16---17---------|
|---------------|----------------18-----|----------15---|---------------------|
|---------------|-----------------------|---------------|---------------------|
|---------------|-----------------------|---------------|---------------------|
|
|   W              E   E E  E  E  Q.      W                W
|---------------|-----------------------|---------------|---------------------|
|---------------|-----------------------|---------------|---------------------|
|---------------|-17--16---15-----------|---------------|---------------------|
|---------------|----------------18-----|---------------|---------------------|
|---------------|-----------------------|---------------|---------------------|
|---------------|-----------------------|---------------|---------------------|
|
|   H     H        Q.       Q.       Q    H     H          Q.       Q.     Q
|---------------|-----------------------|---------------|---------------------|
|---------------|-----------------------|---------------|--3------------------|
|---------------|-----------------------|-------3-------|-----------3---------|
|---5-----0-----|--5--------8--------5--|-3-------------|------------------6--|


   +H.        S  E.   Q    H      Q     Q  Q   Q  Q     Q  Q   Q  Q
|------------15h16--|----------------|---------------|---------------|
|-(18)--------------|-----18---------|---------------|---------------|
|-------------------|----------------|---------------|---------------|
|-------------------|----------------|-15-----15-----|-15-----15-----|
|-------------------|----------------|---------------|---------------|
|-------------------|----------------|---------------|---------------|
|
|   H.        S  E.   Q    H      Q     W               W
|-------------------|----------------|---------------|---------------|
|-------------------|----------------|---------------|---------------|
|-------------------|----------------|---------------|---------------|
|------------18h19--|-----15---------|---------------|---------------|
|-------------------|----------------|---------------|---------------|
|-------------------|----------------|---------------|---------------|
|
|   H     H           Q.     Q.   Q     H      Q  Q     H      Q  Q
|-------------------|----------------|---------------|---------------|
|-------------------|----------------|---------------|---------------|
|-------------------|----------------|---------------|---------------|
|---5-----0---------|-5------8----5--|--3------3-----|--3------3-----|


   S  H.       +E.    Q    E  H      +E
|------------------|---------------------*|
|------------------|---------------------*|
|------------------|---------------------*|
|-14h15-------(15)-|-14------15-----(15)-*|
|------------------|---------------------*|
|------------------|---------------------*|
|
|  W                  E  E E  H      +E
|------------------|---------------------*|
|------------------|---------------------*|
|------------------|---------------------*|
|------------------|-14-14---15-----(15)-*|
|------------------|---------------------*|
|------------------|---------------------*|
|
|  W                  H         H
|------------------|---------------------*|
|------------------|---------------------*|
|------------------|--3------------------*|
|--3---------------|------------3--------*|


Duration Legend
---------------
W - whole; H - half; Q - quarter; E - 8th; S - 16th; T - 32nd; X - 64th; a - acciaccatura
+ - note tied to previous; . - note dotted; .. - note double dotted
Uncapitalized letters represent notes that are staccato (1/2 duration)
Irregular groupings are notated above the duration line
Duration letters will always appear directly above the note/fret number it represents the
duration for.  Duration letters with no fret number below them represent rests.  Multi-
bar rests are notated in the form Wxn, where n is the number of bars to rest for.  Low
melody durations appear below the staff

Tablature Legend
----------------
 h   - hammer-on
 p   - pull-off
 b   - bend
 pb  - pre-bend
 r   - bend release (if no number after the r, then release immediately)
 /\  - slide into or out of (from/to "nowhere")
 s   - legato slide
 S   - shift slide
  - natural harmonic
[n]  - artificial harmonic
n(n) - tapped harmonic
 ~   - vibrato
 tr  - trill
 T   - tap
 TP  - trem. picking
 PM  - palm muting
\n/  - tremolo bar dip; n = amount to dip
 \n  - tremolo bar down
 n/  - tremolo bar up
/n\  - tremolo bar inverted dip
 =   - hold bend; also acts as connecting device for hammers/pulls
 <>  - volume swell (louder/softer)
 x   - on rhythm slash represents muted slash
 o   - on rhythm slash represents single note slash

Misc Legend
-----------
 |  - bar
||  - double bar
||o - repeat start
o|| - repeat end
*|  - double bar (ending)
 :  - bar (freetime)
 $  - Segno
 &  - Coda
Tempo markers -  = BPM(8/16=s8/s16), where s8 = swing 8ths, s16 = swing 16ths


***************************************************************************************
* Generated using Power Tab Editor by Brad Larsen - http://powertab.guitarnetwork.org *
***************************************************************************************
Login or Register to remove this ad.