Ads

Ending (Advance Wars 2: Black Hole Rising) Guitar Tab

Submitted: Jan 15, 2011 by BluePhoenix

4
Average: 4 (2 votes)
Download | Listen
Game: Advance Wars 2: Black Hole Rising
Composer(s): Yoshito Hirano
Style: Transcription

AutoScroll: Slow | Medium | Fast
Ending
Advance Wars 2: Black Hole Rising
Taishi Senda
BluePhoenix
11/30/10


rhythm

e-----------------------------------------------------------------------------------------------
b-----------------------------------------------------------------------------------------------
g----5----8------------1---3p0------------------------------------------------------------------
d--5---5-----8-5-8---1---1-----1p(0)------------------------------------------------------------
a-----------------------------------------------------------------------------------------------
E-----------------------------------------------------------------------------------------------

e-----------------------------------------------------------------------------------------------
b-----------------------------------------------------------------------------------------------
g----5----8------------1----0-------------------------------------------------------------------
d--5---5-----8-5-8---1---1--1-------------------------------------------------------------------
a-----------------------------------------------------------------------------------------------
E-----------------------------------------------------------------------------------------------

lead

Part A:

e--15-----------15-------------------15------------15-----------15-------------15---------------
b-----18--16-18-------16-18-16-18\16------------------18--16-18-------16-18-16----16------------
g-----------------------------------------------------------------------------------------------
d-----------------------------------------------------------------------------------------------
a-----------------------------------------------------------------------------------------------
E-----------------------------------------------------------------------------------------------

                                                        ending 1   ending 2
e------------------------------------------------------|----------|-18--------------------------
b--15-16-16------16---16/20-20--16--------18----18--18-|-15-------|-----------------------------
g------------15----------------------------------------|----------|-----------------------------
d------------------------------------------------------|----------|-----------------------------
a------------------------------------------------------|----------|-----------------------------
E------------------------------------------------------|----------|-----------------------------

Part B:

e--18--15-13-15---18--15-13-15------------------------------------------------------------------
b------------------------------19-18-16------13--13--16----19--18-(16)--------------------------
g-----------------------------------------------------------------------------------------------
d-----------------------------------------------------------------------------------------------
a-----------------------------------------------------------------------------------------------
E-----------------------------------------------------------------------------------------------

e--18--15-13-15---18--15-13-15------------------------------------------------------------------
b------------------------------19-18-16------13--13--16----18-19----16--------------------------
g-----------------------------------------------------------------------------------------------
d-----------------------------------------------------------------------------------------------
a-----------------------------------------------------------------------------------------------
E-----------------------------------------------------------------------------------------------

Ax2
Bx2
Ax2
Bx2

()-optional
Login or Register to remove this ad.