Black Hole Power (Advance Wars 2: Black Hole Rising) Bass Tab

Submitted: Aug 26, 2011 by auriplane (Last updated: Aug 26, 2011)

5
Average: 5 (1 vote)
Download | Listen
Game: Advance Wars 2: Black Hole Rising
Composer(s): Yoshito Hirano
Style: Fingerstyle, Transcription

AutoScroll: Slow | Medium | Fast
              Advance Wars 2 - Black Hole Power  BASS TAB
                      Composed by Yoshito Hirano
  
                Tabbed by Auriplane ([email protected])



        Part A


   S S S S S S S S S S S S S S S S  S S S S S S S S S S S S S S S S
G |--------------------------------|--------------------------------|
D |--------------------------------|--------------------------------| x4
A |--------2-1---2---1-------------|--------2-1---1---2-------------|
E |3-1-4-1-----1---1---1-1-3-4-1-3-|1-4-1-1-----1---1---1-1-3-4-1-1-|



        Part B (start slapping)

   E   S S S S S S S E   E   E   S  E   S S S S S S S E.    S E   S
G |--------------------------------|--------------------------------|
D |----------4---3-----------------|----------3---4-----------------|
A |--------------------------------|--------------------------------|
E |1---1-1---------1-1---1---1---1-|1---1-1---------1-1-----1-1---5-|


   E   S S S S S S S E   E   E   S  E   S S S S S S S E.    S E.
G |--------------------------------|--------------------------------|
D |----------4---3-----------------|----------3---4-----------------|
A |--------------------------------|--------------------------------|
E |1---1-1---------1-1---1---1---1-|1---1-1---------1-1-----1-------|


   Q..           S S E   E   E   S  E   S S S S S S S E.    S E   S
G |--------------------------------|--------------------------------|
D |--------------3-----------------|----------3---4-----------------|
A |--------------------------------|--------------------------------|
E |----------------1-1---1---1---1-|1---1-1---------1-1-----1-1---5-|


   E   S S S S S S S E   E   E   S  E   S S S S S S S E.    S E.
G |--------------------------------|--------------------------------|
D |----------4---3-----------------|----------3---4-----------------|
A |--------------------------------|--------------------------------|
E |1---1-1---------1-1---1---1---1-|1---1-1---------1-1-----1-------|



        Part C

   E   S S S S S S S E   E   E   S  E   S S S S S S S E.    S E   S
G |--------------------------------|--------------------------------|
D |----------4---3-----------------|----------3---4-----------------|
A |--------------------------------|--------------------------------|
E |1---1-1---------1-1---1---1---1-|1---1-1---------1-1-----1-1---5-|


   E   S S S S S S S E   E   E   S  E   S S S S S S S E.    S E.
G |--------------------------------|--------------------------------|
D |----------4---3-----------------|----------3---4-----------------|
A |--------------------------------|--------------------------------|
E |1---1-1---------1-1---1---1---1-|1---1-1---------1-1-----1-------|


   S S S S S S S S S E   E   E   S  E   S S S S S S S E.    S E   S
G |--------------------------------|--------------------------------|
D |----3-----4---5-----------------|----------4---5-----------------|
A |--------------------------------|------------------------------1-|
E |0s1---1s2---2---2-2---2---2---2-|2---2-2---------2-2-----2-2-----|


   E   S S S S S S S E   E   E   S  E   S S S S S S S E.    S S S S
G |--------------------------------|--------------------------------|
D |----------4---3-----------------|----------3---4-----------------|
A |1---1-1---------1-1---1---1---1-|1---1-1---------1-1-----1-1-1-1-|
E |--------------------------------|--------------------------------|




Notes: The first note in the third to last measure is actually an Eb.  
I fudged it, because I don't think it actually makes a difference, and 
I think that standard tuning is good for this song :-)




Duration Legend
---------------
W  - whole
H  - half
Q  - quarter
E  - 8th
S  - 16th
.  - note dotted
.. - double dotted

Login or Register to remove this ad.

3 comments on Black Hole Power

(headbangs) :Ô:!!

5

(headbangs)

:Ô:!!

Is the lack hole theme the

Is the black hole theme the same in all games? The link you put up goes to the Dual Strike version, so I wasn't sure.

It's the same in AW2 and DS.

It's the same in AW2 and DS. I don't remember about AW1, though.