Birth of the People (Actraiser) Guitar Tab

Submitted: May 29, 2010 by TKStriker

0
Download | Listen
Game: Actraiser
Composer(s): Yuzo Koshiro
Style: Alternate picking, Transcription

Click here for a video example.

AutoScroll: Slow | Medium | Fast
ActRaiser - Birth of the People

Here's one on my all time favorites. It's a linear piece with a classical sound.
This one is played mostly around the 3rd fret. Check out my video if you need 
the timing on this one. Enjoy.

e---5-3---------------------------------5-3-----------------------------------------
B-3-----6-5-6---6-5---3---3-5-3---3---3-----6-5-6---6-5---3---3-5-6-5-3-------------
G-------------------5-----------5-----------------------5---------------------------
D-----------------------------------------------------------------------------------
A-----------------------------------------------------------------------------------
E-----------------------------------------------------------------------------------

e-10-9-10---------------------------------------------------------------------------
B-----------10-9-10------------------------6--5---5-----6--5---5--------------------
G---------------------10-9-10-------------------7------------7----------------------
D-------------------------------12-11-12------------7-------------------------------
A-----------------------------------------------------------------------------------
E-----------------------------------------------------------------------------------

e-------5-6---------5------------------------5---8---6-5-6-8-6-5-----6--------------
B-6---8-----5---6-8-------5-6-8---8--6-5-6-----7-----------------8------------------
G---------------------7---------6----------------------------------5----------------
D-----------------------------------------------------------------------------------
A-----------------------------------------------------------------------------------
E-----------------------------------------------------------------------------------

e-5---5--------5--------5-----------------------------------------------------------
B---8---6---------8-7-8---8-5-----8--7-5-7------------------------------------------
G----------7------------------6-----------------------------------------------------
D------------8------------------7---------------------------------------------------
A-----------------------------------------------------------------------------------
E-----------------------------------------------------------------------------------
Login or Register to remove this ad.