Ads

Into the Dusk (Ace Combat 5) Guitar Tab

Submitted: Dec 17, 2022 by amb1t (Last updated: Dec 19, 2022)

0
Download | No audio :(
Game: Ace Combat 5
Composer(s): Junichi Nakatsuru, Keiki Kobayashi, Tetsukazu Nakanishi
Style: Artificial harmonics, Fingerstyle
Series: Ace Combat

AutoScroll: Slow | Medium | Fast
Original Composer: Keiki Kobayashi
Original Piano Score: https://www.youtube.com/watch?v=aJXqNzUlpK8

Tempo = 60

Legend
L - tied note
x - dead note
h - hammer on/pull off
b - bend
s - slide
~ - vibrato
g - ghost note
> - accentuated note
t - trill
M - palm mute
. - staccato
P - popping (bass)
S - slapping (bass)
+ - tapping
W - wide vibrato
< - fade in
w - whammy bar
= - tremolo picking
v - brush up
^ - brush down
V - pick stroke up
n - pick stroke down

                                                                
E |--1L---------------|--1-------------------------------------|
B |-------------------|----------------------------------------|
G |-------------------|--3-------------------------------------|
D |-------------------|----------------------------------------|
A |-------------------|--------------1--1----------------------|
E |-------------------|----------------------------------------|

                                         
----------------------------------------|
--1-------------------------------------|
--------------1L-1----------------------|
----------------------------------------|
--------------1--1----------------------|
----------------------------------------|

                                                                 
----------------------------------------------------------------|
----------------------------------------------------------------|
--0-------------------------------------------------------------|
--1-------------------------------------------------------------|
--------------------------1-----1-----------4--3----------------|
----------------------------------------------------------------|

                                         
----------------------------------------|
----------------------------------------|
----------------------------------------|
--------------1--------3----------------|
--4-----------1--1----------------------|
----------------------------------------|

                                         
----------------------------------------|
-----------------------2----------------|
--3-----------------3--3----------------|
--3-----------------3-------------------|
--------------1--1----------------------|
----------------------------------------|

                 ^                       
----------------------------------------|
--4-------------------------------------|
--------------5-------------------------|
----------------------------------------|
----------------------------------------|
--------------6--6----------------------|

                                         
----------------------------------------|
----------------------------------------|
----------------------------------------|
--6-------------------------------------|
----------------------------------------|
--------------6--6----------------------|

                                    ^    
----------------------------------------|
----------------------------------------|
----------------------------------------|
----------------------------------------|
--6-----------------8-------------------|
--------------6--6----------------------|

                                                                                
--6L----------------------------------------------6-----------------8--6--------
--------------------------------------------------------------------------9-----
--6L----------------------------------------------6-----------------------------
--8L----------------------------------------------8-----------------------------
--8L----------------------------------------------8-----------------------------
--------------------------------------------------------------------------------

                                 
--------------------------------|
--------------------------------|
--------------------------------|
--------------------------------|
--------------------------------|
--------------------------------|

                                                                 
--6-----------------------------------6-----8-------------------|
--7-----------------------------------6-----9-------------------|
--------------------------------------6-----8-------------------|
-----------------------------------6----------------------------|
----------------------------------------------------------------|
--------------------------6-----6-------------------------------|

                                 ^       
--9-----------------11------------------|
--11----------------14------------------|
--10----------------13------------------|
--8-----------8--8----------------------|
----------------------------------------|
----------------------------------------|

                                         
--11----------------9--8----------------|
--13-------------9--9-------------------|
--13----------8--8--10-8----------------|
----------------------------------------|
----------------------------------------|
----------------------------------------|

                                         
--9-----------6--------8----------------|
--6--------6-----------9----------------|
--------------6-------------------------|
----------------------------------------|
----------------------------------------|
--6-------------------------------------|

                                         
--9-----------------9--11---------------|
--11-------------11---------------------|
--11----------11------------------------|
--8-----------8-------------------------|
----------------------------------------|
----------------------------------------|

                                         
--13------------------------------------|
--------------9-------------------------|
--------------10-------6----------------|
-----8--8--------------8----------------|
----------------------------------------|
----------------------------------------|

     ^                                   
--------------------1-------------------|
--------------------1-------------------|
--8-----------------1-------------------|
--10----------------3-------------------|
--------------------3-------------------|
-----------8--6-----1-------------------|

                                                                 
--2-------------------------------------------------------------|
--------------4-----4-------------------------------------------|
--3-----------------------------3-----------1--3----------------|
--4-----------------------------4-------------------------------|
----------------------------------------------------------------|
----------------------------------------------------------------|

                                                                                
--------------------------------------8-----------------------9-----------------
--1-----1L----------------------1-----------------------------------------------
-----3--------------------------------8-----------------------10----------------
--1-----------------------------------6-----------------------------------------
--------------------------------------------------9-----------8-----------------
--------------------------------------------------------------------------------

                                 
--------------------------------|
--------------------------------|
--------------------------------|
--------------------------------|
--------------------------------|
--------------------------------|

                                                                                
--------------4-----------------------------------------------------------9-----
--4-----------7-----------------------------------------------------------9-----
--5-----------5-----------6-----------------------5-----------------------6-----
--4-----------6-----------------------------------------------------------------
--------------------------------------------------------------------------------
--------------------------------------------------------------------------------

                                                                          
------------8--9----------------|--6L----6L----6--6--8--9----------------|
--------------------------------|--7-----7L----7--7----------------------|
--------------------------------|--------------------11-11---------------|
--------------------------------|-----------------8--10-11---------------|
--------------------------------|-----------------9--9--9----------------|
--------------------------------|----------------------------------------|

                                         
--2--------2--4-----6--4L---------------|
--2-----------6--------6L---------------|
--3-----------6--------6L---------------|
--4-----4-----4--6----------------------|
----------------------------------------|
-----2----------------------------------|

                                                                 
--4-----------9-----------------6-------------------------------|
--6-----------11----------9--------------------6----------------|
--6-----------------------8-----6-----------6-------------------|
--6-----------11----------10----8-------------------------------|
----------------------------------------------------------------|
--------------------------8-------------------------------------|

                                                                                
--6--------------------------------------9-----11-------------11----9-----------
--------------------9--------------6-----6--------------9-----------------------
--6-----------------10-------6-----------6-----------10-------------------------
--8-----------------8--------------------------11-------------------------------
--------------------------------------------------------------------------------
--------------------------------------------------------------------------------

         
--------|
--------|
--------|
--------|
--------|
--------|

                                                                                
--8--------------------------------------------9--------8--------6--------------
--9-----------------------------------------------------9-----------------------
--8-----------------------5L----------5--------6--------------------------------
--------------------6--------------------------8--------10-------8--------------
--------6-----8-----------------------------------------------------------------
-----------------------------------------------6--------8-----------------------

         
--------|
--------|
--------|
--------|
--------|
--------|

                                                                                
--------------------------------------------------------------------------------
--------------------------------------------------------------------------------
--------------------------------------------------------------------------------
--------------------------------------------------------------------------------
--------------------------------------------------------------------------------
--9-----------------8-----------------6L----------6-----------------------------

                                 
8--6----------------------------|
------9-------------------------|
--------------------------------|
--------------------------------|
--------------------------------|
--------------------------------|

                                                              
-----6-----------------------------------6-----8-------------|
--6--7-----------------------------------7-------------------|
-----------------8-----------6-------------------------------|
-------------------------------------------------------------|
-------------------------------------------------------------|
-------------------------------------------------------------|

                                                                
--16-14-13-11---------|--11------------------------------------|
--14----11-11---------|--13----------2-----1-------------------|
--11----11-10---------|--13----13----3-----1-------------------|
--11------------------|--10-13-------4-----1-------------------|
----------------------|--------------4-----3-------------------|
----------------------|-----------------4-----4----------------|

                                         
----------------------------------------|
--2-------------------------------------|
--3-------------------------------------|
--4-------------------------------------|
--------------3-------------------------|
-----6--------------4-------------------|

                                                                                
--------------------------------------------------------------------------------
-----------------------------------------7-----------------------6--------------
--------------------------------------------------------------------------------
-----------------------------6--------------------------------------------------
--6-----------6--4--------------------------------------------------------------
--------------------------------------------------------------------------------

                                    
---------4-------------------------|
-----------------------------------|
-----------------------------------|
-----------------------------------|
-----------------------------------|
-----------------------------------|

                                                                 
----------------------------------------------------------------|
--------------------------------4L----------4L------------------|
--------------------------5-----------------6-------------------|
--------3-----3--------6-----6----------------------------------|
--6-----4-----------6-------------------------------------------|
----------------------------------------------------------------|

                                                                      
-----------------1-----4----------------|----------------------------|
--4-------------------------------------|--4--2--1-------------------|
-----5-----------1----------------------|-----------1L---------------|
-----------4--3-----4--3----------------|----------------------------|
--------------4-------------------------|----------------------------|
-----------2----------------------------|----------------------------|

                                         
-----------2-----1-----4L---------------|
----------------------------------------|
--1-------------------------------------|
----------------------------------------|
----------------------------------------|
----------------------------------------|

                                                     
--4-------------------------------------------------|
--------------1-----4--------2----------------------|
-----------3-----1----------------------------------|
----------------------------------------------------|
----------------------------------------------------|
----------------------------------------------------|

                                                    ^                    ^
--------------------------------------------------------------------------------
-----------------------------------------------------6-----------------------7--
--5-----------------------6--5--------------------------------------------------
-----------------------------------------8--------------------------------------
--------------------------------------------------------------------------------
--------------------------------------------------------------------------------


-----------------------------------|
---------9-------------------------|
-----------------------------------|
-----------------------------------|
-----------------------------------|
-----------------------------------|


--8-----------6-----------4----------------------|
--9--9--------7--7--------6--6-------------------|
-----10-10-------8--8--------6--6----------------|
--------10----------8-----------6----------------|
-------------------------------------------------|
-------------------------------------------------|


--2-----------------------1-----------------------------------------------------
--4-----4-----------------2-----2-----------------4--------------------4--------
--------5-----------------------3-----3-----------5-----5-----------6-----------
--------------6-----------------------3-----------------6-----------------------
--------------------------------------------------------------6-----------------
--------------------------------------------------------------------------------


-----|--------------6----------------|
-----|--7----------------------------|
-----|--8-----6--------6-------------|
-----|-----8-------------------------|
-----|--9----------------------------|
-----|-------------------------------|


--------6-----8--6--8-----------------------------------------------------------
--9-----------------------------------------------------------------------------
--------------8-----------------------------------------------------------------
--------------------------------------------------6-----------------------------
--------------------------8-----------9-----------------------9-----------------
--------------------------------------------------------------------------------


-----|----------------------------------------|
-----|-----------9--------9-------------------|
-----|--5-----6-----6--8----------------------|
-----|--6-----8--6-----------10L--------------|
-----|----------------------------------------|
-----|----------------------------------------|


--8L----------8-----8--9--6-----------------------------------4-----------------
--9L----------9-----------7-----------------------------------------------7-----
--------------------------------------6-----------5-----------------------------
--10L---------10----------------------------------------------------------------
--------------------------------------------------------------------------------
--------------------------------------------------------------------------------


--------------------------------|
--------------------------------|
--------------------------------|
--------------------------------|
--------------------------------|
--------------------------------|


--6-----8-----9-----------------------14------------------------|
--7-----------------7--------------------9L---------------------|
--------11----11----6--------------11----10L--------------------|
--8-----10----11----8-----------8--------11L--------------------|
--9-----9-----9-----9-----9-------------------------------------|
-----------------------9----------------------------------------|


--------4-------------------------------|
--9--11-6-----------2-------------------|
--10----------------3-------------------|
--11----3-------------------------------|
----------------------------------------|
----------------------------------------|


--4-----6-------------------------------------------------------|
--4-----2-------------------------------------------------------|
--5-----3-----------------3-------------------------------------|
-----------------------3----------------------------------------|
-----------------4----------------------------------------------|
--------------4-------------------------------------------------|


--------------9-----11------------------------------------------|
--6--------------------------------6----------------------------|
--------------10----8--------5--8--------6----------------------|
--6-----8-----11-------6--8-----------6-----6--8L---------------|
--8--6----------------------------------------------------------|
----------------------------------------------------------------|


--------------4--------------------6--9L------------------------|
--------------6--------------6--9-------------------------------|
--------------6-----------6-------------------------------------|
--8-----------6-----6--8----------------------------------------|
----------------------------------------------------------------|
----------------------------------------------------------------|


--9----------------|
-------------------|
-------------------|
-------------------|
-------------------|
-------------------|


--8--9-----------8-----------6--------------------------------------------------
--------------------------------------------------------------------------------
--5--6-----------5-----------3--------------------------------------------------
--------------------------------------------------------------------------------
--------------------------------------------------------------------------------
--------------------------------------------------------------------------------


-----------------------------------||
-----------------------------------||
-----------------------------------||
-----------------------------------||
-----------------------------------||
-----------------------------------||

Login or Register to remove this ad.