Confrontation ~ Allegro 2009 (Ace Attorney Investigations: Miles Edgeworth) Bass Tab

Submitted: Mar 03, 2010 by auriplane

0
Download | Listen
Game: Ace Attorney Investigations: Miles Edgeworth
Composer(s): Noriyuki Iwadare, Yasuko Yamada
Style: Transcription
Series: Phoenix Wright

AutoScroll: Slow | Medium | Fast
                 Ace Attorney Investigations: Miles Edworth
                   Confrontation ~ Allegro 2009 BASS TAB
               Composed by Noriyuki Iwadare and Yasuko Yamada

                   Tabbed by Auriplane ([email protected])




Five-string bass, standard tuning.  The half-bar just to the
right of this text is a pickup; the pattern repeats a few
times, and you can either play it like this, or move the 7    SSSSSSSS
up one string to a 2.  I wrote it this way at the end of      --------|
Part D, so play it like that if you think it's easier.        -43-----|
                                                              ---64-46|
                                                              -----7--|
                                                              --------|

        Part A


   E E E E E E E E  E E E E E E E E  E E E E E E E E  E E E E E E E SS
G |----------------|----------------|----------------|----------------|
D |----------------|----------------|----------------|----------------|
A |----------------|----------------|----------------|--------------46|
E |4-------4-------|4-------4-------|4-------4-------|4-------4---4---|
B |--6-7-6---6-7-6-|--6-7-6---6-7-6-|--6-7-6---6-7-6-|--6-7-6---6-----|


   E E E E E E E E  E E E E E E E E  W                H       SSSSSSSS
G |----------------|----------------|----------------|----------------|
D |----------------|----------------|----------------|---------43-----|
A |----------------|----------------|----------------|-----------64-46|
E |4-------4-------|4-------4-------|----------------|-------------7--|
B |--6-7-6---6-7-6-|--6-7-6---6-7-6-|----------------|----------------|


        Part A'


   E E E E E E E E  E E E E E E E SS E E E E E E E E  E E E E E E E SS
G |----------------|----------------|----------------|----------------|
D |----------------|----------------|----------------|----------------|
A |----------------|--------------46|----------------|--------------46|
E |4-------4-------|4-------4---4---|4-------4-------|4-------4---4---|
B |--6-7-6---6-7-6-|--6-7-6---6-----|--6-7-6---6-7-6-|--6-7-6---6-----|


   E E E E E E E E  E E E E E E E SS W                H       Q.    SS
G |----------------|----------------|----------------|----------------|
D |----------------|----------------|----------------|----------------|
A |----------------|--------------46|----------------|--------------68|
E |4-------4-------|4-------4---4---|----------------|----------------|
B |--6-7-6---6-7-6-|--6-7-6---6-----|----------------|----------------|


        Part B


   E E E E E E E E  E E E SSSSE E SS E E E E E E E SS E E E SSSSSSSSE
G |6-5-------------|----------------|-10-8-6---------|----------------|
D |----8-6---------|----------------|8-------8-6-----|--------------8-|
A |--------8-6-----|-------6-6--8-68|------------8-68|----6--6-6--68--|
E |------------9-6-|--6-9-6---9-----|----------------|6-6---9----9----|
B |----------------|9---------------|----------------|----------------|


   E E E E E E E SS E E E E E E E E  E E E E E E E E
G |6-----------4---|6---------------|----------------|
D |----6-4-------46|--6-4-----------|----------------|
A |--4-----7-4-----|------7-4-------|--4-4-4-8-----8-|
E |----------------|----------4-7-6-|4---------------|
B |----------------|----------------|----------6-6---|


        Part C


   H.          E E  H.          E E  H.          E E  H.          SSSS
G |----------------|----------------|----------------|----------------|
D |----------------|----------------|----------------|----------------|
A |----------------|----------------|----------------|----------------|
E |6-------------6-|L-------------6-|L-------------6-|L---------------|
B |----------------|----------------|----------------|-------------696|


   E E E E E E E E
G |----------------|
D |----------------|
A |----------------| x4
E |6-6-6-6-6-6-6-6-|
B |----------------|


        Part D


   Q   H.           E E E E E E E E  Q   Q   Q   E. S E E E E E E E SS
G |----------------|----------------|----------------|----------------|
D |----------------|----------------|----------------|4---------------|
A |6---------------|------6-4-------|---------------6|--6-4-----------|
E |----------------|--4-6-----6-4-6-|----------------|------6-4-6---46|
B |----------------|4---------------|4---------------|------------6---|


   Q   H.           H       Q.    E  E E E E E E E E  E E E E SSSSSSSS
G |----------------|----------------|----------------|----------------|
D |----------------|----------------|----------------|4---------------|
A |----------------|----------------|------6-4-------|--6-4-6--43-----|
E |----------------|--------------6-|--4-6-----6-4-6-|-----------64246|
B |4---------------|----------------|4---------------|----------------|


        Part E


   E E E E E E E E  E E E E E E E E  E E E E E E E E  E E E E E E E SS
G |----------------|----------------|----------------|----------------|
D |----------------|----------------|----------------|----------------|
A |------6-4-------|------6-4-------|------6-4-------|------6-4-------|
E |--4-6-----6-4-6-|--4-6-----6-4-6-|--4-6-----6-4-6-|--4-6-----6-4-46|
B |4---------------|4---------------|4---------------|4---------------|


   E E E E E E E E  E E E E E E E E  E E E E E E E E  E E E E E E E SS
G |----------------|----------------|----------------|----------------|
D |----------------|----------------|----------------|----------------|
A |------6-4-------|------6-4-------|------6-4-------|6-6---6-6-6---46|
E |--4-6-----6-4-6-|--4-6-----6-4-6-|--4-6-----6-4-6-|----------------|
B |4---------------|4---------------|4---------------|----------------|


        Repeat back to Part A.




Duration Legend
---------------
W - whole
H - half
Q - quarter
E - 8th
S - 16th
. - note dotted


Tablature Legend
----------------
L - tied note

Login or Register to remove this ad.