Ads

Lemele Town (The 7th Saga) Guitar Tab

Submitted: Jun 15, 2009 by Hypomani (Last updated: Feb 04, 2010)

5
Average: 5 (2 votes)
Download | Listen
Game: The 7th Saga
Composer(s): Norihiko Yamanuki
Style: Arrangement, Fingerstyle

AutoScroll: Slow | Medium | Fast
The 7th Saga - Lemele Town

Composer: Norihiko Yamanuki
Tabbed by: Hypomani


     E  E  E  E  E  E  E  E     E  E  E  E  E  E  E  E     E  E  E  E  E  E  E  E   
E||--0--0--0--5--7--0--0--0--|--3--2--3--5--7-----------|--0-----5-----3--2--------|
B||-----7--8--5-----------7--|-----3--3--3-----0--0--0--|--------------------3-----|
G||--------------------------|--------------0-----------|-----------------------2--|
D||--2-----------------------|--0-----------------------|-----2--2--2--0--4--4--4--|
A||--------------7-----------|--------------------------|--3-----------------------|
E||--------------------------|--------------------------|--------------------------|


  E  E  E  E  E  E  E  E     E  E  E  E  E  E  E  E     E  E  E  E  E  E  E  E   
--------------------------|--0--0--0--5--7--0--0--0--|--3--2--3--5--7-----------|
--0--0--0--0-----0-----0--|-----7--8--5-----------7--|-----3--3--3-----0--0--0--|
--0--------0--0--0--------|--------------------------|--------------0-----------|
--------------------4-----|--2-----------------------|--0-----------------------|
--------------------------|--------------7-----------|--------------------------|
--------------------------|--------------------------|--------------------------|


  E  E  E  E  E  E  E  E     E  E  E  E  E  E  E  E     E  E  E  E  E  E  E  E   
--0-----5-----3--2--------|--0--0--0--0-----0-----0--|-----0--0--0-----0--0--0--|
--------------------3-----|--------------------------|-----0--1--3--1--1--3--1--|
-----------------------2--|--0--------0--0-----------|--1-----------0-----------|
-----2--2--2--0--4--4--4--|--------------------2-----|--------------------------|
--3-----------------------|--------------------------|--------------------------|
--------------------------|--------------------------|--------------------------|


  E  E  E  E  E  E  E  E     E  E  E  E  E  E  E  E     E  E  E  S S E  E  E  E   
-----0--0--0-----0--------|--------------------------|---------------------------|
--1--0--1--1--1--------1--|--------3--------0--------|--1--0--0--0---0--0--0--0--|
--2-----------2-----0-----|--2--2--2--2--5--2--2--2--|--0--0-------2-0-----0-----|
--------------------------|--4-----------4-----0-----|---------------------------|
--------------------------|--------------------------|---------------------------|
--------------------------|--------------------------|---------------------------|


  E  E  E  E  E  E  E  E     E  E  E  E  E  E  E  E     E  Q    E  E  E  E  E   
--------------------------|--------------------------|-------------------------|
--------1-----0-----------|--------------------------|-------------------------|
--0--------------2--0-----|--2-----------2-----------|-----4----4--2--0--------|
-----2--2--2-----2--2--2--|--1--4--4--4--1--4--4--4--|--4----------1--4--4--4--|
--3-----------3-----------|--------------------------|--6----------------------|
--------------------------|--------------------------|-------------------------|


  E  E  E  E  E  E  E  E     E  E  E  E  E  E  E  E     E  E  E  E  E  E  E  E   
-----0--0--0--------------|--------------0--------0--|--2-----5-----------------|
-----------------3--3--3--|-----0--1--3-----1--3-----|--------------------------|
--0--------0--2--4--5-----|--5--------5-----0--0--0--|-----------------2--2--2--|
--2--2--4-----0-----------|--------------------------|--0--4--4--4--0-----------|
--------------------------|--3-----------3-----------|--------------------------|
--------------------------|--------------------------|--------------------------|


  E  E   E  E  E  E  E  E     E  E  E  E  E  E  E  E     E  E  E  E  E  E  E  E   
-----7------------0--------|--------------------------|--------------0-----------|
--------10--8--7--------7--|--8--0--0--0-----3--3--3--|-----0--1--3--------------|
---------------------7-----|--0-----------0-----------|-----------------0--0--0--|
--0------------0--7--7--7--|--------------------------|-----2--2--2--------------|
-----9---9--9--------------|--------------------------|--3-----------3--3--------|
---------------------------|--------------------------|--------------------------|


  E  E  E  E  E  Q    E     E  E  E  E  E  E  E  E     E  E  E  E  E  E  E  E   
--------0--2-------------|-----5--3--2--0--------2--|--0--0--3--0--------------|
-----4--------0--0----0--|-----------------4--4--4--|--------5--------3--3--3--|
-------------------------|-----------------4--------|--------------------------|
--1--4--4--4--1----------|--1--4--4--4--1-----------|--2-----------0-----------|
-------------------------|--------------------------|--------------------------|
-------------------------|--------------------------|--------------------------|


  E  E  E  E  E  E  E  E     E  Q    E  E  E  E  E     E  E  E  E  Q    Q     
-----------------0--1--2--|-------------7-----------|--------2-----7---------|
--2-----0--2--4--2--2--2--|--0--0----0-----0-----0--|--4--0-----4-------7----|
-----2--------------------|-------------------6-----|------------------------|
--------------------------|-------------------------|------------------------|
--4-----------4-----------|--2----------------------|------------------------|
--------------------------|-------------7-----------|------------------------|


  v                  
  W                  
--0----------------||
--0----------------||
-------------------||
--2----------------||
--2----------------||
--0----------------||




Duration Legend
---------------
W - whole
H - half
Q - quarter
E - 8th
S - 16th
T - 32nd
X - 64th
. - note dotted
|-n-|  - n-tuplets


Tablature Legend
----------------
L - tied note
x - dead note
g - grace note
(n) - ghost note
> - accentuded note
NH - natural harmonic
AH - artificial harmonic
TH - tapped harmonic
SH - semi harmonic
PH - pitch harmonic
h - hammer on
p - pull off
b - bend
br - bendRelease
pb - preBend
pbr - preBendRelease
brb - bendReleaseBend
\n/ - tremolo bar dip
\n - tremolo bar dive
-/n - tremolo bar Release up
/n\ - tremolo bar inverted dip
/n - tremolo bar return
-\n - tremolo bar Release down
S - shift slide
s - legato slide
/ -  slide into from below or out of upwards
\ -  slide into from above or out of downwards
~ - vibrato
W - wide vibrato
tr - trill
TP - tremolo picking
T - tapping
S - slap
P - pop
< - fade in
^ - brush up
v - brush down
Login or Register to remove this ad.

1 comment on Lemele Town

The fact that this only had 1

5

The fact that this only had 1 rating in all of 12 years just goes to show that old school game ost deserve more attention. this is phenomenal. thank you.