Login or Register to remove this ad.

GTYNP: Seiken Densetsu 3 - Innocent Sea

Posted in GTYNP

Seiken Densetsu 3Most people don't know it, but Seiken Densetsu 3 is actually the sequel to Secret of Mana. It was only released in Japan however, and the game is relatively unknown anywhere else. My favorite song from this game (and one of my favorite video game songs in general) is Innocent Sea. Unlike previous GTYNP's, this is not a classical style tab. It's probably geared more toward electric, but can also be played on an acoustic. I love the constant tremolo in the background, and the overall melancholy mood of the song. All three guitars go very well together, and it's very fun to play with a friend or two.

Link to TAB | MIDI

 
 
 
 

Guitar 1

Tremolo
     T T T T T T T T T T T T T T T T T T T T T T T T
E||--2-2-2-2-2-2-2-2-2-2-2-2-2-2-2-2-0-0-0-0-0-0-0-0-|
B||--------------------------------------------------|
G||--------------------------------------------------|
D||--------------------------------------------------|
A||--------------------------------------------------|
E||--------------------------------------------------|

  T T T T T T T T T T T T T T T T T T T T T T T T
--5-5-5-5-5-5-5-5-5-5-5-5-5-5-5-5-4-4-4-4-4-4-4-4-|
--------------------------------------------------|
--------------------------------------------------|
--------------------------------------------------|
--------------------------------------------------|
--------------------------------------------------|

  T T T T T T T T T T T T T T T T T T T T T T T T
--2-2-2-2-2-2-2-2-2-2-2-2-2-2-2-2-2-2-2-2-2-2-2-2-|
--------------------------------------------------|
--------------------------------------------------|
--------------------------------------------------|
--------------------------------------------------|
--------------------------------------------------|

  T T T T T T T T T T T T T T T T T T T T T T T T
--2-2-2-2-2-2-2-2-2-2-2-2-2-2-2-2-2-2-2-2-2-2-2-2-|
--------------------------------------------------|
--------------------------------------------------|
--------------------------------------------------|
--------------------------------------------------|
--------------------------------------------------|

  T T T T T T T T T T T T T T T T T T T T T T T T
--------------------------------------------------|
--3-3-3-3-3-3-3-3-3-3-3-3-3-3-3-3-2-2-2-2-3-3-3-3-|
--------------------------------------------------|
--------------------------------------------------|
--------------------------------------------------|
--------------------------------------------------|

  T T T T T T T T T T T T T T T T T T T T T T T T
--0-0-0-0-0-0-0-0-2-2-2-2-2-2-2-2-----------------|
----------------------------------3-3-3-3-3-3-3-3-|
--------------------------------------------------|
--------------------------------------------------|
--------------------------------------------------|
--------------------------------------------------|

  T T T T T T T T T T T T T T T T T T T T T T T T
--------------------------------------------------|
--------------------------------------------------|
--4-4-4-4-4-4-4-4-4-4-4-4-4-4-4-4-4-4-4-4-4-4-4-4-|
--------------------------------------------------|
--------------------------------------------------|
--------------------------------------------------|

  T T T T T T T T T T T T T T T T T T T T T T T T
--------------------------------------------------|
--------------------------------------------------|
--4-4-4-4-4-4-4-4-4-4-4-4-4-4-4-4-4-4-4-4-4-4-4-4-|
--------------------------------------------------|
--------------------------------------------------|
--------------------------------------------------|

  T T T T T T T T T T T T T T T T T T T T T T T T
--------------------------------------------------|
--------------------------------------------------|
--4-4-4-4-4-4-4-4-4-4-4-4-4-4-4-4-2-2-2-2-4-4-4-4-|
--------------------------------------------------|
--------------------------------------------------|
--------------------------------------------------|

  T T T T T T T T T T T T T T T T T T T T T T T T
--0-0-0-0-0-0-0-0-0-0-0-0-0-0-0-0-2-2-2-2-2-2-2-2-|
--------------------------------------------------|
--------------------------------------------------|
--------------------------------------------------|
--------------------------------------------------|
--------------------------------------------------|

  T T T T T T T T T T T T T T T T T T T T T T T T
--------------------------------------------------|
--3-3-3-3-3-3-3-3-3-3-3-3-3-3-3-3-3-3-3-3-3-3-3-3-|
--------------------------------------------------|
--------------------------------------------------|
--------------------------------------------------|
--------------------------------------------------|

  T T T T T T T T T T T T T T T T T T T T T T T T
--------------------------------------------------|
--3-3-3-3-3-3-3-3-3-3-3-3-3-3-3-3-3-3-3-3-3-3-3-3-|
--------------------------------------------------|
--------------------------------------------------|
--------------------------------------------------|
--------------------------------------------------|

  T T T T T T T T T T T T T T T T T T T T T T T T
--------------------------------------------------|
--3-3-3-3-3-3-3-3-2-2-2-2-2-2-2-2-0-0-0-0-0-0-0-0-|
--------------------------------------------------|
--------------------------------------------------|
--------------------------------------------------|
--------------------------------------------------|

  T T T T T T T T T T T T T T T T T T T T T T T T
--------------------------------------------------|
--2-2-2-2-2-2-2-2-2-2-2-2-2-2-2-2-----------------|
----------------------------------2-2-2-2-2-2-2-2-|
--------------------------------------------------|
--------------------------------------------------|
--------------------------------------------------|

  T T T T T T T T T T T T T T T T T T T T T T T T
--------------------------------------------------|
--------------------------------------------------|
--4-4-4-4-4-4-4-4-4-4-4-4-4-4-4-4-4-4-4-4-4-4-4-4-|
--------------------------------------------------|
--------------------------------------------------|
--------------------------------------------------|

  T T T T T T T T T T T T T T T T T T T T T T T T
--------------------------------------------------|
--------------------------------------------------|
--4-4-4-4-4-4-4-4-4-4-4-4-4-4-4-4-4-4-4-4-4-4-4-4-|
--------------------------------------------------|
--------------------------------------------------|
--------------------------------------------------|

  T T T T T T T T T T T T T T T T T T T T T T T T
--2-2-2-2-2-2-2-2-2-2-2-2-2-2-2-2-0-0-0-0-0-0-0-0-|
--------------------------------------------------|
--------------------------------------------------|
--------------------------------------------------|
--------------------------------------------------|
--------------------------------------------------|

  T T T T T T T T T T T T T T T T T T T T T T T T
--5-5-5-5-5-5-5-5-5-5-5-5-5-5-5-5-4-4-4-4-4-4-4-4-|
--------------------------------------------------|
--------------------------------------------------|
--------------------------------------------------|
--------------------------------------------------|
--------------------------------------------------|

  T T T T T T T T T T T T T T T T T T T T T T T T
--2-2-2-2-2-2-2-2-2-2-2-2-2-2-2-2-2-2-2-2-2-2-2-2-|
--------------------------------------------------|
--------------------------------------------------|
--------------------------------------------------|
--------------------------------------------------|
--------------------------------------------------|

  T T T T T T T T T T T T T T T T T T T T T T T T
--2-2-2-2-2-2-2-2-2-2-2-2-2-2-2-2-2-2-2-2-2-2-2-2-|
--------------------------------------------------|
--------------------------------------------------|
--------------------------------------------------|
--------------------------------------------------|
--------------------------------------------------|

  T T T T T T T T T T T T T T T T T T T T T T T T
--------------------------------------------------|
--3-3-3-3-3-3-3-3-3-3-3-3-3-3-3-3-2-2-2-2-3-3-3-3-|
--------------------------------------------------|
--------------------------------------------------|
--------------------------------------------------|
--------------------------------------------------|

  T T T T T T T T T T T T T T T T T T T T T T T T
--0-0-0-0-0-0-0-0-2-2-2-2-2-2-2-2-----------------|
----------------------------------3-3-3-3-3-3-3-3-|
--------------------------------------------------|
--------------------------------------------------|
--------------------------------------------------|
--------------------------------------------------|

  T T T T T T T T T T T T T T T T T T T T T T T T
--------------------------------------------------|
--------------------------------------------------|
--4-4-4-4-4-4-4-4-4-4-4-4-4-4-4-4-4-4-4-4-4-4-4-4-|
--------------------------------------------------|
--------------------------------------------------|
--------------------------------------------------|

  T T T T T T T T T T T T T T T T T T T T T T T T
--------------------------------------------------|
--------------------------------------------------|
--4-4-4-4-4-4-4-4-4-4-4-4-4-4-4-4-4-4-4-4-4-4-4-4-|
--------------------------------------------------|
--------------------------------------------------|
--------------------------------------------------|

  T T T T T T T T T T T T T T T T T T T T T T T T
--------------------------------------------------|
--------------------------------------------------|
--4-4-4-4-4-4-4-4-4-4-4-4-4-4-4-4-2-2-2-2-4-4-4-4-|
--------------------------------------------------|
--------------------------------------------------|
--------------------------------------------------|

  T T T T T T T T T T T T T T T T T T T T T T T T
--0-0-0-0-0-0-0-0-0-0-0-0-0-0-0-0-2-2-2-2-2-2-2-2-|
--------------------------------------------------|
--------------------------------------------------|
--------------------------------------------------|
--------------------------------------------------|
--------------------------------------------------|

  T T T T T T T T T T T T T T T T T T T T T T T T
--------------------------------------------------|
--3-3-3-3-3-3-3-3-3-3-3-3-3-3-3-3-3-3-3-3-3-3-3-3-|
--------------------------------------------------|
--------------------------------------------------|
--------------------------------------------------|
--------------------------------------------------|

  T T T T T T T T T T T T T T T T T T T T T T T T
--------------------------------------------------|
--3-3-3-3-3-3-3-3-3-3-3-3-3-3-3-3-3-3-3-3-3-3-3-3-|
--------------------------------------------------|
--------------------------------------------------|
--------------------------------------------------|
--------------------------------------------------|

  T T T T T T T T T T T T T T T T T T T T T T T T
--------------------------------------------------|
--3-3-3-3-3-3-3-3-2-2-2-2-2-2-2-2-0-0-0-0-0-0-0-0-|
--------------------------------------------------|
--------------------------------------------------|
--------------------------------------------------|
--------------------------------------------------|

  T T T T T T T T T T T T T T T T T T T T T T T T
--------------------------------------------------|
--2-2-2-2-2-2-2-2-2-2-2-2-2-2-2-2-----------------|
----------------------------------2-2-2-2-2-2-2-2-|
--------------------------------------------------|
--------------------------------------------------|
--------------------------------------------------|

  T T T T T T T T T T T T T T T T T T T T T T T T
--------------------------------------------------|
--------------------------------------------------|
--4-4-4-4-4-4-4-4-4-4-4-4-4-4-4-4-4-4-4-4-4-4-4-4-|
--------------------------------------------------|
--------------------------------------------------|
--------------------------------------------------|

  T T T T T T T T T T T T T T T T T T T T T T T T
--------------------------------------------------||
--------------------------------------------------||
--4-4-4-4-4-4-4-4-4-4-4-4-4-4-4-4-4-4-4-4-4-4-4-4-||
--------------------------------------------------||
--------------------------------------------------||
--------------------------------------------------||

Duration Legend
---------------
W - whole
H - half
Q - quarter
E - 8th
S - 16th
T - 32nd
X - 64th
. - note dotted
|-n-|  - n-tuplets

Guitar 2

Rhythm
     E  E  E  E  E  E     E  E  E  E  E  E     E  E  E  E  E  E
E||--------------------|--------------------|--------------------|
B||--------3-----2-----|--------3-----5-----|--------3-----2-----|
G||--------------------|-----------------2--|--------------------|
D||-----4-----4-----4--|-----4-----4--------|-----4-----4-----4--|
A||--2-----------------|--2-----------------|--2-----------------|
E||--------------------|--------------------|--------------------|

  E  E  E  E  E  E     E  E  E  E  E  E     E  E  E  E  E  E
--------------------|--------------------|--------------------|
--------3-----2-----|--------------------|--------------------|
--------------------|--------------2-----|--------------------|
-----4-----4-----4--|-----0--5--0-----0--|-----0--5--0--2--0--|
--2-----------------|--------------------|--------------------|
--------------------|--3-----------------|--3-----------------|

  E  E  E  E  E  E     E  E  E  E  E  E     E  E  E  E  E  E
--------------------|--------------------|--------------------|
--------------------|--------------------|--------------------|
--------------2-----|--------------------|--------0-----------|
-----0--5--0-----0--|-----0--5--0--4--0--|-----2-----2--4--2--|
--------------------|--------------------|--2-----------------|
--3-----------------|--3-----------------|--------------------|

  E  E  E  E  E  E     E  E  E  E  E  E     E  E  E  E  E  E
--------------------|--------------------|--------------------|
--------------------|--------------------|--------------------|
--------0-----2-----|--------------2-----|--------------2-----|
-----2-----2-----2--|-----0--2--0-----0--|-----0--4--0-----0--|
--0-----------------|--2-----------------|--2-----------------|
--------------------|--------------------|--------------------|

  E  E  E  E  E  E     E  E  E  E  E  E     E  E  E  E  E  E
--------------------|--------------------|--------------------|
--------------------|--------------------|--------------------|
--------------2-----|--------------------|--------------2-----|
-----0--5--0-----0--|-----2--4--2--4--0--|-----0--4--0-----0--|
--------------------|--0-----------------|--2-----------------|
--3-----------------|--------------------|--------------------|

  E  E  E  E  E  E     E  E  E  E  E  E     E  E  E  E  E  E
--------------------|--------------------|--------------------|
--------------------|--------3-----2-----|--------3-----5-----|
--------------2-----|--------------------|-----------------2--|
-----0--4--0-----0--|-----4-----4-----4--|-----4-----4--------|
--2-----------------|--2-----------------|--2-----------------|
--------------------|--------------------|--------------------|

  E  E  E  E  E  E     E  E  E  E  E  E     E  E  E  E  E  E
--------------------|--------------------|--------------------|
--------3-----2-----|--------3-----2-----|--------------------|
--------------------|--------------------|--------------2-----|
-----4-----4-----4--|-----4-----4-----4--|-----0--5--0-----0--|
--2-----------------|--2-----------------|--------------------|
--------------------|--------------------|--3-----------------|

  E  E  E  E  E  E     E  E  E  E  E  E     E  E  E  E  E  E
--------------------|--------------------|--------------------|
--------------------|--------------------|--------------------|
--------------------|--------------2-----|--------------------|
-----0--5--0--2--0--|-----0--5--0-----0--|-----0--5--0--4--0--|
--------------------|--------------------|--------------------|
--3-----------------|--3-----------------|--3-----------------|

  E  E  E  E  E  E     E  E  E  E  E  E     E  E  E  E  E  E
--------------------|--------------------|--------------------|
--------------------|--------------------|--------------------|
--------0-----------|--------0-----2-----|--------------2-----|
-----2-----2--4--2--|-----2-----2-----2--|-----0--2--0-----0--|
--2-----------------|--0-----------------|--2-----------------|
--------------------|--------------------|--------------------|

  E  E  E  E  E  E     E  E  E  E  E  E     E  E  E  E  E  E
--------------------|--------------------|--------------------|
--------------------|--------------------|--------------------|
--------------2-----|--------------2-----|--------------------|
-----0--4--0-----0--|-----0--5--0-----0--|-----2--4--2--4--0--|
--2-----------------|--------------------|--0-----------------|
--------------------|--3-----------------|--------------------|

  E  E  E  E  E  E     E  E  E  E  E  E
--------------------|--------------------||
--------------------|--------------------||
--------------2-----|--------------2-----||
-----0--4--0-----0--|-----0--4--0-----0--||
--2-----------------|--2-----------------||
--------------------|--------------------||

Duration Legend
---------------
W - whole
H - half
Q - quarter
E - 8th
S - 16th
T - 32nd
X - 64th
. - note dotted
|-n-|  - n-tuplets

Guitar 3

Flute
E||-------|-------|-------|-------|-------|-------|-------|-------|-------|
B||-------|-------|-------|-------|-------|-------|-------|-------|-------|
G||-------|-------|-------|-------|-------|-------|-------|-------|-------|
D||-------|-------|-------|-------|-------|-------|-------|-------|-------|
A||-------|-------|-------|-------|-------|-------|-------|-------|-------|
E||-------|-------|-------|-------|-------|-------|-------|-------|-------|

                                                          H        Q
-------|-------|-------|-------|-------|-------|-------|--7--------5----|
-------|-------|-------|-------|-------|-------|-------|----------------|
-------|-------|-------|-------|-------|-------|-------|--4--------2----|
-------|-------|-------|-------|-------|-------|-------|----------------|
-------|-------|-------|-------|-------|-------|-------|----------------|
-------|-------|-------|-------|-------|-------|-------|----------------|

   H        Q       H.              H.              H        E  E
--10--------9----|--7------------|--L------------|-----------------|
-----------------|---------------|---------------|--8--------7--8--|
---7--------6----|--4------------|--L------------|-----------------|
-----------------|---------------|---------------|--5--------4--5--|
-----------------|---------------|---------------|-----------------|
-----------------|---------------|---------------|-----------------|

   Q     Q    Q       H.              H.              H.
-------------------|---------------|---------------|---------------|
--10----12----8----|--7------------|--L------------|--8------------|
-------------------|---------------|---------------|---------------|
---7-----9----5----|--4------------|--L------------|--5------------|
-------------------|---------------|---------------|---------------|
-------------------|---------------|---------------|---------------|

   H.               H.               H.               Q    Q    Q
----------------|----------------|----------------|--10----9----7----|
--10------------|--12------------|---L------------|------------------|
----------------|----------------|----------------|---7----6----4----|
---7------------|---9------------|---L------------|------------------|
----------------|----------------|----------------|------------------|
----------------|----------------|----------------|------------------|

  H        Q       H.              H.
--5--------9----|--7------------|--L------------||
----------------|---------------|---------------||
--2--------6----|--4------------|--L------------||
----------------|---------------|---------------||
----------------|---------------|---------------||
----------------|---------------|---------------||

Duration Legend
---------------
W - whole
H - half
Q - quarter
E - 8th
S - 16th
T - 32nd
X - 64th
. - note dotted
|-n-|  - n-tuplets

8 comments on GTYNP: Seiken Densetsu 3 - Innocent Sea

what a sweet song...nice

what a sweet song...nice choice

Yeah a very nice choice.

Yeah a very nice choice. I've actually been playing with the idea of combining guitar I and II together. Yeah you lose guitar III but you can play it on your own. Which would be nice.

Wow, how would that work?

Wow, how would that work?

I would imagine using

I would imagine using tremelo with the first 2 strings and thumbing the other notes from guitar 2. I am horrid at tremelo, but it would sound very nice if it could be done.

You gotta have some serious

You gotta have some serious coordination to do that. I suppose it could work though.

Ron, you immediately thought

Ron, you immediately thought Recuerdos de la Alhambra like I did the moment this piece started didn't you? heh, I'm sure this would work as a tremolo piece. Hope to hear what you come up with.

Well if you do come up with

Well if you do come up with something, it will require a video or recording with it. :P

Well I put up my first guess

Well I put up my first guess (look on the home page). Yeah Kabuki I listened to it and thought, "Hey, I played that piece when it was called Recuerdos De Alhambra!" LOL

So check it out. As for recording aj, give me some time to work it up. Right now I'm working on some other pieces. Well that and I need to secure myself a good recording mechanism.