Login or Register to remove this ad. | Advertise Here

Yokan (Solo) (Zero no Tsukaima) Guitar Tab

Submitted: Mar 09, 2011 by Caldron (Last updated: Mar 09, 2011)

5
Average: 5 (1 vote)
Download | Listen
Game: Zero no Tsukaima
Composer(s): Mitsumune Shinkichi
Style: Transcription, Tremolo

AutoScroll: Slow | Medium | Fast
Electric Guitar
140 bpm

     H.            S   S  E      H.           Q     
E||----------------------11--|---------------------|
B||---------------11h-13-----|--13-----------------|
G||--------------------------|---------------------|
D||--------------------------|---------------------|
A||--------------------------|---------------------|
E||--------------------------|---------------------|


  E   Q      E  E    E  E   E       Q.       E  E   E    E     E   
-------------------------------|----------------------------------|
-----11------------------------|----------------------------------|
-----------/12-----\10--8--10--|--/12-----------8--10--/12--8g10--|
-------------------------------|-----------\10--------------------|
-------------------------------|----------------------------------|
-------------------------------|----------------------------------|


  E  Q.      Q.     E      E  E    E  E  E   Q.       
--------------------9b--|--L--8--7g6--8-----11b------|
------------------------|----------------8-----------|
--L--8~-----------------|----------------------------|
------------------------|----------------------------|
------------------------|----------------------------|
------------------------|----------------------------|


   Q          E   E   Q.       S S     E.    S  S S E   S S  S  E.  S  S  
--11pbr----------11----------------|-------------------------------------|
-----------9g11------11b------11-8-|-------------------------------------|
-----------------------------------|--10br---8------8--------------------|
-----------------------------------|-----------10-x----10-8----10---8----|
-----------------------------------|------------------------10--------10-|
-----------------------------------|-------------------------------------|


                                                            \1/     
  E  S  S E  S S   S S S  S  Q       E   S S S S   S S  S S Q.      
----------------------------------|--------------------------------|
----------------------------------|--------------------------------|
----------------------------------|-------------------------8------|
----------------------------------|------------------8----8-8------|
--9--8s-6----6-8s-10-8-6h-8p-6----|--L/------6-8s-10---10----------|
----------8-----------------------|------6-8-----------------------|


                         \1/                                        
  S S S S S S   S S  S S Q.        S S S S S S   S S  E  E   E  E   
--------------------------------|----------------------------------|
--------------------------------|----------------------------------|
-------------------------8------|------------------------8------8--|
------------------8----8-8------|------------------8-----8--10--8--|
------6---6-8s-10---10----------|------6---6-8s-10---10------------|
--6-8---8-----------------------|--6-8---8-------------------------|


   Q      E     E  E   S   S E   E      Q     E   Q     E   E   E    
------------------------------------|--13----13--11--------11--13b--|
-----------------------------x------|------------------13-----------|
--10b----10br------8--10s-12----12--|-------------------------------|
---------------10-------------------|-------------------------------|
------------------------------------|-------------------------------|
------------------------------------|-------------------------------|


  E   E     E     E     E     E     E     E     
--L--13pb--13pb--13pb--13pb--13pb--13pb--13pb--|
-----------------------------------------------|
-----------------------------------------------|
-----------------------------------------------|
-----------------------------------------------|
-----------------------------------------------|


   Q.        S  S  E   E   E  S   S    E   E   E   S   S  S  S  E   E      S  S  
--13pbr------L-11-13------11--Ls-18-|--L--15--14--13s-11----11-13--13pbr--11-13-|
--13------------------13------------|--------------------13---------------------|
------------------------------------|-------------------------------------------|
------------------------------------|-------------------------------------------|
------------------------------------|-------------------------------------------|
------------------------------------|-------------------------------------------|


   E   S  S  S  S  S  S  S  S  S  S  S   S S  S  
---L--11----11-11-------------------------------|
---------13-------13-11-13----11----------------|
---------------------------12----10-12s-10-8----|
---------------------------------------------10-|
------------------------------------------------|
------------------------------------------------|


                                      3                                   
   E  E   S  S  E  E  E   E  E        H.            E      E       Q      
--------------------------------|----------------------------------------|
--------------------------------|----------------------------------------|
--10--8----------------------8--|----------------------------------------|
---L-----10p-8-----8--9--10-----|--8g10~------------L--8g(10)--8g(10)----|
---------------10---------------|----------------------------------------|
--------------------------------|----------------------------------------|


  E   S S S S  S  E   Q    E.     W                  
-------------------------------|-------------------||
-------------------------------|-------------------||
-------------------------------|-------------------||
--8s--3-1----------------------|-------------------||
----------3-1h-3s-1s--3----L---|--L----------------||
-------------------------------|-------------------||




Duration Legend
---------------
W - whole
H - half
Q - quarter
E - 8th
S - 16th
T - 32nd
X - 64th
. - note dotted
|-n-|  - n-tuplets


Tablature Legend
----------------
L - tied note
x - dead note
g - grace note
(n) - ghost note
> - accentuded note
NH - natural harmonic
AH - artificial harmonic
TH - tapped harmonic
SH - semi harmonic
PH - pitch harmonic
h - hammer on
p - pull off
b - bend
br - bendRelease
pb - preBend
pbr - preBendRelease
brb - bendReleaseBend
\n/ - tremolo bar dip
\n - tremolo bar dive
-/n - tremolo bar Release up
/n\ - tremolo bar inverted dip
/n - tremolo bar return
-\n - tremolo bar Release down
S - shift slide
s - legato slide
/ -  slide into from below or out of upwards
\ -  slide into from above or out of downwards
~ - vibrato
W - wide vibrato
tr - trill
TP - tremolo picking
T - tapping
S - slap
P - pop
< - fade in
^ - brush up
v - brush down